  0
SECTION
  2
HEADER
  9
$ACADVER
  1
AC1015
  9
$ACADMAINTVER
 70
     6
  9
$DWGCODEPAGE
  3
ANSI_1254
  9
$INSBASE
 10
0.0
 20
0.0
 30
0.0
  9
$EXTMIN
 10
0.0
 20
0.0
 30
0.0
  9
$EXTMAX
 10
279.4
 20
215.9
 30
0.0
  9
$LIMMIN
 10
0.0
 20
0.0
  9
$LIMMAX
 10
279.4
 20
215.9
  9
$ORTHOMODE
 70
     0
  9
$REGENMODE
 70
     1
  9
$FILLMODE
 70
     1
  9
$QTEXTMODE
 70
     0
  9
$MIRRTEXT
 70
     1
  9
$LTSCALE
 40
1.0
  9
$ATTMODE
 70
     1
  9
$TEXTSIZE
 40
3.5
  9
$TRACEWID
 40
1.0
  9
$TEXTSTYLE
  7
Standard
  9
$CLAYER
  8
0
  9
$CELTYPE
  6
ByLayer
  9
$CECOLOR
 62
   256
  9
$CELTSCALE
 40
1.0
  9
$DISPSILH
 70
     0
  9
$DIMSCALE
 40
1.0
  9
$DIMASZ
 40
3.5
  9
$DIMEXO
 40
1.0
  9
$DIMDLI
 40
3.75
  9
$DIMRND
 40
0.0
  9
$DIMDLE
 40
0.0
  9
$DIMEXE
 40
1.0
  9
$DIMTP
 40
0.0
  9
$DIMTM
 40
0.0
  9
$DIMTXT
 40
3.5
  9
$DIMCEN
 40
2.5
  9
$DIMTSZ
 40
0.0
  9
$DIMTOL
 70
     0
  9
$DIMLIM
 70
     0
  9
$DIMTIH
 70
     1
  9
$DIMTOH
 70
     1
  9
$DIMSE1
 70
     0
  9
$DIMSE2
 70
     0
  9
$DIMTAD
 70
     1
  9
$DIMZIN
 70
     0
  9
$DIMBLK
  1

  9
$DIMASO
 70
     1
  9
$DIMSHO
 70
     1
  9
$DIMPOST
  1

  9
$DIMAPOST
  1

  9
$DIMALT
 70
     0
  9
$DIMALTD
 70
     3
  9
$DIMALTF
 40
0.0393700787
  9
$DIMLFAC
 40
1.0
  9
$DIMTOFL
 70
     1
  9
$DIMTVP
 40
0.0
  9
$DIMTIX
 70
     0
  9
$DIMSOXD
 70
     0
  9
$DIMSAH
 70
     0
  9
$DIMBLK1
  1

  9
$DIMBLK2
  1

  9
$DIMSTYLE
  2
ISO-25
  9
$DIMCLRD
 70
     0
  9
$DIMCLRE
 70
     0
  9
$DIMCLRT
 70
     0
  9
$DIMTFAC
 40
1.0
  9
$DIMGAP
 40
1.524
  9
$DIMJUST
 70
     0
  9
$DIMSD1
 70
     0
  9
$DIMSD2
 70
     0
  9
$DIMTOLJ
 70
     0
  9
$DIMTZIN
 70
     0
  9
$DIMALTZ
 70
     0
  9
$DIMALTTZ
 70
     0
  9
$DIMUPT
 70
     0
  9
$DIMDEC
 70
     2
  9
$DIMTDEC
 70
     2
  9
$DIMALTU
 70
     2
  9
$DIMALTTD
 70
     3
  9
$DIMTXSTY
  7
Standard
  9
$DIMAUNIT
 70
     0
  9
$DIMADEC
 70
     2
  9
$DIMALTRND
 40
0.0
  9
$DIMAZIN
 70
     0
  9
$DIMDSEP
 70
    44
  9
$DIMATFIT
 70
     3
  9
$DIMFRAC
 70
     0
  9
$DIMLDRBLK
  1

  9
$DIMLUNIT
 70
     2
  9
$DIMLWD
 70
    -2
  9
$DIMLWE
 70
    -2
  9
$DIMTMOVE
 70
     0
  9
$LUNITS
 70
     2
  9
$LUPREC
 70
     2
  9
$SKETCHINC
 40
1.0
  9
$FILLETRAD
 40
10.0
  9
$AUNITS
 70
     0
  9
$AUPREC
 70
     2
  9
$MENU
  1
.
  9
$ELEVATION
 40
0.0
  9
$PELEVATION
 40
0.0
  9
$THICKNESS
 40
0.0
  9
$LIMCHECK
 70
     0
  9
$CHAMFERA
 40
0.0
  9
$CHAMFERB
 40
0.0
  9
$CHAMFERC
 40
0.0
  9
$CHAMFERD
 40
0.0
  9
$SKPOLY
 70
     0
  9
$TDCREATE
 40
2459935.710558195
  9
$TDUCREATE
 40
2459935.585558195
  9
$TDUPDATE
 40
2459935.71055838
  9
$TDUUPDATE
 40
2459935.58555838
  9
$TDINDWG
 40
0.0000000116
  9
$TDUSRTIMER
 40
0.0000000116
  9
$USRTIMER
 70
     1
  9
$ANGBASE
 50
0.0
  9
$ANGDIR
 70
     0
  9
$PDMODE
 70
     0
  9
$PDSIZE
 40
-1.0
  9
$PLINEWID
 40
0.0
  9
$SPLFRAME
 70
     0
  9
$SPLINETYPE
 70
     6
  9
$SPLINESEGS
 70
     8
  9
$HANDSEED
  5
128
  9
$SURFTAB1
 70
     6
  9
$SURFTAB2
 70
     6
  9
$SURFTYPE
 70
     6
  9
$SURFU
 70
     6
  9
$SURFV
 70
     6
  9
$UCSBASE
  2

  9
$UCSNAME
  2

  9
$UCSORG
 10
0.0
 20
0.0
 30
0.0
  9
$UCSXDIR
 10
1.0
 20
0.0
 30
0.0
  9
$UCSYDIR
 10
0.0
 20
1.0
 30
0.0
  9
$UCSORTHOREF
  2

  9
$UCSORTHOVIEW
 70
     0
  9
$UCSORGTOP
 10
0.0
 20
0.0
 30
0.0
  9
$UCSORGBOTTOM
 10
0.0
 20
0.0
 30
0.0
  9
$UCSORGLEFT
 10
0.0
 20
0.0
 30
0.0
  9
$UCSORGRIGHT
 10
0.0
 20
0.0
 30
0.0
  9
$UCSORGFRONT
 10
0.0
 20
0.0
 30
0.0
  9
$UCSORGBACK
 10
0.0
 20
0.0
 30
0.0
  9
$PUCSBASE
  2

  9
$PUCSNAME
  2

  9
$PUCSORG
 10
0.0
 20
0.0
 30
0.0
  9
$PUCSXDIR
 10
1.0
 20
0.0
 30
0.0
  9
$PUCSYDIR
 10
0.0
 20
1.0
 30
0.0
  9
$PUCSORTHOREF
  2

  9
$PUCSORTHOVIEW
 70
     0
  9
$PUCSORGTOP
 10
0.0
 20
0.0
 30
0.0
  9
$PUCSORGBOTTOM
 10
0.0
 20
0.0
 30
0.0
  9
$PUCSORGLEFT
 10
0.0
 20
0.0
 30
0.0
  9
$PUCSORGRIGHT
 10
0.0
 20
0.0
 30
0.0
  9
$PUCSORGFRONT
 10
0.0
 20
0.0
 30
0.0
  9
$PUCSORGBACK
 10
0.0
 20
0.0
 30
0.0
  9
$USERI1
 70
     0
  9
$USERI2
 70
     0
  9
$USERI3
 70
     0
  9
$USERI4
 70
     0
  9
$USERI5
 70
     0
  9
$USERR1
 40
0.0
  9
$USERR2
 40
0.0
  9
$USERR3
 40
0.0
  9
$USERR4
 40
0.0
  9
$USERR5
 40
0.0
  9
$WORLDVIEW
 70
     1
  9
$SHADEDGE
 70
     3
  9
$SHADEDIF
 70
    70
  9
$TILEMODE
 70
     1
  9
$MAXACTVP
 70
    64
  9
$PINSBASE
 10
0.0
 20
0.0
 30
0.0
  9
$PLIMCHECK
 70
     0
  9
$PEXTMIN
 10
1.0000000000E+20
 20
1.0000000000E+20
 30
1.0000000000E+20
  9
$PEXTMAX
 10
-1.0000000000E+20
 20
-1.0000000000E+20
 30
-1.0000000000E+20
  9
$PLIMMIN
 10
0.0
 20
0.0
  9
$PLIMMAX
 10
420.0
 20
297.0
  9
$UNITMODE
 70
     0
  9
$VISRETAIN
 70
     1
  9
$PLINEGEN
 70
     0
  9
$PSLTSCALE
 70
     1
  9
$TREEDEPTH
 70
  3020
  9
$CMLSTYLE
  2
Standard
  9
$CMLJUST
 70
     0
  9
$CMLSCALE
 40
20.0
  9
$PROXYGRAPHICS
 70
     1
  9
$MEASUREMENT
 70
     1
  9
$CELWEIGHT
370
    -1
  9
$ENDCAPS
280
     0
  9
$JOINSTYLE
280
     0
  9
$LWDISPLAY
290
     1
  9
$INSUNITS
 70
     4
  9
$HYPERLINKBASE
  1

  9
$STYLESHEET
  1

  9
$XEDIT
290
     1
  9
$CEPSNTYPE
380
     0
  9
$PSTYLEMODE
290
     1
  9
$FINGERPRINTGUID
  2
{86281d7a-8a98-495a-8cf0-2198cd8ee647}
  9
$VERSIONGUID
  2
{FAEB1C32-E019-11D5-929B-00C0DF256EC4}
  9
$EXTNAMES
290
     1
  9
$PSVPSCALE
 40
0.0
  9
$OLESTARTUP
290
     0
  0
ENDSEC
  0
SECTION
  2
CLASSES
  0
CLASS
  1
ACDBDICTIONARYWDFLT
  2
AcDbDictionaryWithDefault
  3
ObjectDBX Classes
 90
        0
280
     0
281
     0
  0
CLASS
  1
VISUALSTYLE
  2
AcDbVisualStyle
  3
ObjectDBX Classes
 90
     4095
280
     0
281
     0
  0
CLASS
  1
MATERIAL
  2
AcDbMaterial
  3
ObjectDBX Classes
 90
     1153
280
     0
281
     0
  0
CLASS
  1
SCALE
  2
AcDbScale
  3
ObjectDBX Classes
 90
     1153
280
     0
281
     0
  0
CLASS
  1
TABLESTYLE
  2
AcDbTableStyle
  3
ObjectDBX Classes
 90
     4095
280
     0
281
     0
  0
CLASS
  1
MLEADERSTYLE
  2
AcDbMLeaderStyle
  3
ACDB_MLEADERSTYLE_CLASS
 90
     4095
280
     0
281
     0
  0
CLASS
  1
SUN
  2
AcDbSun
  3
SCENEOE
 90
     1153
280
     0
281
     0
  0
CLASS
  1
ACDBPLACEHOLDER
  2
AcDbPlaceHolder
  3
ObjectDBX Classes
 90
        0
280
     0
281
     0
  0
CLASS
  1
LAYOUT
  2
AcDbLayout
  3
ObjectDBX Classes
 90
        0
280
     0
281
     0
  0
ENDSEC
  0
SECTION
  2
TABLES
  0
TABLE
  2
VPORT
  5
8
330
0
100
AcDbSymbolTable
 70
     1
  0
VPORT
  5
29
330
8
100
AcDbSymbolTableRecord
100
AcDbViewportTableRecord
  2
*Active
 70
     0
 10
0.0
 20
0.0
 11
1.0
 21
1.0
 12
139.7
 22
107.95
 13
0.0
 23
0.0
 14
10.0
 24
10.0
 15
10.0
 25
10.0
 16
0.0
 26
0.0
 36
1.0
 17
0.0
 27
0.0
 37
0.0
 40
215.9
 41
1.2941176471
 42
50.0
 43
0.0
 44
0.0
 50
0.0
 51
0.0
 71
     0
 72
  2000
 73
     1
 74
     3
 75
     0
 76
     0
 77
     0
 78
     0
281
     0
 65
     1
110
0.0
120
0.0
130
0.0
111
1.0
121
0.0
131
0.0
112
0.0
122
1.0
132
0.0
 79
     0
146
0.0
  0
ENDTAB
  0
TABLE
  2
LTYPE
  5
5
330
0
100
AcDbSymbolTable
 70
     6
  0
LTYPE
  5
14
330
5
100
AcDbSymbolTableRecord
100
AcDbLinetypeTableRecord
  2
ByBlock
 70
     0
  3

 72
    65
 73
     0
 40
0.0
  0
LTYPE
  5
15
330
5
100
AcDbSymbolTableRecord
100
AcDbLinetypeTableRecord
  2
ByLayer
 70
     0
  3

 72
    65
 73
     0
 40
0.0
  0
LTYPE
  5
16
330
5
100
AcDbSymbolTableRecord
100
AcDbLinetypeTableRecord
  2
Continuous
 70
     0
  3
Solid line
 72
    65
 73
     0
 40
0.0
  0
LTYPE
  5
6E
330
5
100
AcDbSymbolTableRecord
100
AcDbLinetypeTableRecord
  2
HIDDEN
 70
     0
  3
Hidden __ __ __ __ __ __ __ __ __ __ __ __ __ __
 72
    65
 73
     2
 40
1.905
 49
1.27
 74
     0
 49
-0.635
 74
     0
  0
LTYPE
  5
6F
330
5
100
AcDbSymbolTableRecord
100
AcDbLinetypeTableRecord
  2
PHANTOM
 70
     0
  3
Phantom ______  __  __  ______  __  __  ______
 72
    65
 73
     6
 40
12.7
 49
6.35
 74
     0
 49
-1.27
 74
     0
 49
1.27
 74
     0
 49
-1.27
 74
     0
 49
1.27
 74
     0
 49
-1.27
 74
     0
  0
LTYPE
  5
70
330
5
100
AcDbSymbolTableRecord
100
AcDbLinetypeTableRecord
  2
CENTER
 70
     0
  3
Center ____ _ ____ _ ____ _ ____ _ ____ _ ____
 72
    65
 73
     4
 40
10.16
 49
6.35
 74
     0
 49
-1.27
 74
     0
 49
1.27
 74
     0
 49
-1.27
 74
     0
  0
LTYPE
  5
71
330
5
100
AcDbSymbolTableRecord
100
AcDbLinetypeTableRecord
  2
CENTERX2
 70
     0
  3
Center (2x) ________  __  ________  __  _____
 72
    65
 73
     4
 40
20.32
 49
12.7
 74
     0
 49
-2.54
 74
     0
 49
2.54
 74
     0
 49
-2.54
 74
     0
  0
LTYPE
  5
72
330
5
100
AcDbSymbolTableRecord
100
AcDbLinetypeTableRecord
  2
DOT2
 70
     0
  3
Dot (.5x) ........................................
 72
    65
 73
     2
 40
0.635
 49
0.0
 74
     0
 49
-0.635
 74
     0
  0
ENDTAB
  0
TABLE
  2
LAYER
  5
2
330
0
100
AcDbSymbolTable
 70
    17
  0
LAYER
  5
10
330
2
100
AcDbSymbolTableRecord
100
AcDbLayerTableRecord
  2
0
 70
     0
 62
     7
  6
Continuous
370
    -3
390
F
  0
LAYER
  5
73
330
2
100
AcDbSymbolTableRecord
100
AcDbLayerTableRecord
  2
FORMAT
 70
     0
 62
     7
  6
Continuous
370
    -3
390
F
  0
LAYER
  5
74
330
2
100
AcDbSymbolTableRecord
100
AcDbLayerTableRecord
  2
YARDIMCI_GEOMETRI
 70
     0
 62
    -6
  6
Continuous
290
     0
370
    -3
390
F
  0
LAYER
  5
75
330
2
100
AcDbSymbolTableRecord
100
AcDbLayerTableRecord
  2
SAYFA_CERCEVESI
 70
     0
 62
     7
  6
Continuous
370
    25
390
F
  0
LAYER
  5
76
330
2
100
AcDbSymbolTableRecord
100
AcDbLayerTableRecord
  2
ANTET
 70
     0
 62
     7
  6
Continuous
370
    -3
390
F
  0
LAYER
  5
77
330
2
100
AcDbSymbolTableRecord
100
AcDbLayerTableRecord
  2
OLCU
 70
     0
 62
   150
  6
Continuous
370
    -3
390
F
  0
LAYER
  5
78
330
2
100
AcDbSymbolTableRecord
100
AcDbLayerTableRecord
  2
METIN
 70
     0
 62
    96
  6
Continuous
370
    -3
390
F
  0
LAYER
  5
79
330
2
100
AcDbSymbolTableRecord
100
AcDbLayerTableRecord
  2
BALON
 70
     0
 62
     5
  6
Continuous
370
    -3
390
F
  0
LAYER
  5
7A
330
2
100
AcDbSymbolTableRecord
100
AcDbLayerTableRecord
  2
VURGU
 70
     0
 62
     7
  6
Continuous
370
    -3
390
F
  0
LAYER
  5
7B
330
2
100
AcDbSymbolTableRecord
100
AcDbLayerTableRecord
  2
SILIK
 70
     0
 62
     7
  6
Continuous
370
    -3
390
F
  0
LAYER
  5
7C
330
2
100
AcDbSymbolTableRecord
100
AcDbLayerTableRecord
  2
MODEL
 70
     0
 62
     7
  6
Continuous
370
    -3
390
F
  0
LAYER
  5
7D
330
2
100
AcDbSymbolTableRecord
100
AcDbLayerTableRecord
  2
DETAYLANDıRMA
 70
     0
 62
   190
  6
Continuous
370
    -3
390
F
  0
LAYER
  5
7E
330
2
100
AcDbSymbolTableRecord
100
AcDbLayerTableRecord
  2
TOLERANS
 70
     0
 62
   230
  6
Continuous
370
    -3
390
F
  0
LAYER
  5
7F
330
2
100
AcDbSymbolTableRecord
100
AcDbLayerTableRecord
  2
MERKEZ_CIZGILERI
 70
     0
 62
    30
  6
Continuous
370
    -3
390
F
  0
LAYER
  5
80
330
2
100
AcDbSymbolTableRecord
100
AcDbLayerTableRecord
  2
KESIT-DETAY_CIZGILERI
 70
     0
 62
     7
  6
Continuous
370
    -3
390
F
  0
LAYER
  5
81
330
2
100
AcDbSymbolTableRecord
100
AcDbLayerTableRecord
  2
\U+041E\U+0421\U+0415\U+0412\U+042B\U+0415
 70
     0
 62
     7
  6
Continuous
370
    -3
390
F
  0
LAYER
  5
82
330
2
100
AcDbSymbolTableRecord
100
AcDbLayerTableRecord
  2
\U+0412\U+041E\U+0414\U+042F\U+041D\U+042B\U+0415_\U+0417\U+041D\U+0410\U+041A\U+0418
 70
     0
 62
    11
  6
Continuous
370
    -3
390
F
  0
ENDTAB
  0
TABLE
  2
STYLE
  5
3
330
0
100
AcDbSymbolTable
 70
     1
  0
STYLE
  5
11
330
3
100
AcDbSymbolTableRecord
100
AcDbTextStyleTableRecord
  2
Standard
 70
     0
 40
0.0
 41
1.0
 50
0.0
 71
     0
 42
3.5
  3
txt
  4

  0
ENDTAB
  0
TABLE
  2
VIEW
  5
6
330
0
100
AcDbSymbolTable
 70
     0
  0
ENDTAB
  0
TABLE
  2
UCS
  5
7
330
0
100
AcDbSymbolTable
 70
     0
  0
ENDTAB
  0
TABLE
  2
APPID
  5
9
330
0
100
AcDbSymbolTable
 70
     1
  0
APPID
  5
12
330
9
100
AcDbSymbolTableRecord
100
AcDbRegAppTableRecord
  2
ACAD
 70
     0
  0
ENDTAB
  0
TABLE
  2
DIMSTYLE
  5
A
330
0
100
AcDbSymbolTable
 70
     1
100
AcDbDimStyleTable
  0
DIMSTYLE
105
27
330
A
100
AcDbSymbolTableRecord
100
AcDbDimStyleTableRecord
  2
ISO-25
 70
     0
 41
2.5
 42
0.625
 43
3.75
 44
1.25
 73
     0
 74
     0
 77
     1
 78
     8
140
2.5
141
2.5
143
0.0393700787
147
0.625
171
     3
172
     1
178
     0
271
     2
272
     2
274
     3
278
    44
283
     0
284
     8
340
11
  0
ENDTAB
  0
TABLE
  2
BLOCK_RECORD
  5
1
330
0
100
AcDbSymbolTable
 70
     4
  0
BLOCK_RECORD
  5
1F
330
1
100
AcDbSymbolTableRecord
100
AcDbBlockTableRecord
  2
*Model_Space
340
22
  0
BLOCK_RECORD
  5
1B
330
1
100
AcDbSymbolTableRecord
100
AcDbBlockTableRecord
  2
*Paper_Space
340
1E
  0
BLOCK_RECORD
  5
23
330
1
100
AcDbSymbolTableRecord
100
AcDbBlockTableRecord
  2
*Paper_Space0
340
26
  0
BLOCK_RECORD
  5
93
330
1
100
AcDbSymbolTableRecord
100
AcDbBlockTableRecord
  2
SW_CENTERMARKSYMBOL_0
340
0
102
{BLKREFS
331
9E
102
}
  0
BLOCK_RECORD
  5
E9
330
1
100
AcDbSymbolTableRecord
100
AcDbBlockTableRecord
  2
SW_CENTERMARKSYMBOL_1
340
0
102
{BLKREFS
331
F4
102
}
  0
BLOCK_RECORD
  5
F5
330
1
100
AcDbSymbolTableRecord
100
AcDbBlockTableRecord
  2
SW_CENTERMARKSYMBOL_2
340
0
102
{BLKREFS
331
100
102
}
  0
ENDTAB
  0
ENDSEC
  0
SECTION
  2
BLOCKS
  0
BLOCK
  5
20
330
1F
100
AcDbEntity
  8
0
100
AcDbBlockBegin
  2
*Model_Space
 70
     0
 10
0.0
 20
0.0
 30
0.0
  3
*Model_Space
  1

  0
ENDBLK
  5
21
330
1F
100
AcDbEntity
  8
0
100
AcDbBlockEnd
  0
BLOCK
  5
1C
330
1B
100
AcDbEntity
 67
     1
  8
0
100
AcDbBlockBegin
  2
*Paper_Space
 70
     0
 10
0.0
 20
0.0
 30
0.0
  3
*Paper_Space
  1

  0
ENDBLK
  5
1D
330
1B
100
AcDbEntity
 67
     1
  8
0
100
AcDbBlockEnd
  0
BLOCK
  5
24
330
23
100
AcDbEntity
  8
0
100
AcDbBlockBegin
  2
*Paper_Space0
 70
     0
 10
0.0
 20
0.0
 30
0.0
  3
*Paper_Space0
  1

  0
ENDBLK
  5
25
330
23
100
AcDbEntity
  8
0
100
AcDbBlockEnd
  0
BLOCK
  5
94
330
93
100
AcDbEntity
  8
0
100
AcDbBlockBegin
  2
SW_CENTERMARKSYMBOL_0
 70
     0
 10
0.0
 20
0.0
 30
0.0
  3
SW_CENTERMARKSYMBOL_0
  1

  0
LINE
  5
96
330
93
100
AcDbEntity
  8
FORMAT
 62
     0
100
AcDbLine
 10
0.0
 20
0.0
 30
0.0
 11
0.0
 21
2.5
 31
0.0
  0
LINE
  5
97
330
93
100
AcDbEntity
  8
FORMAT
 62
     0
100
AcDbLine
 10
0.0
 20
0.0
 30
0.0
 11
-2.5
 21
0.0
 31
0.0
  0
LINE
  5
98
330
93
100
AcDbEntity
  8
FORMAT
 62
     0
100
AcDbLine
 10
0.0
 20
0.0
 30
0.0
 11
0.0
 21
-2.5
 31
0.0
  0
LINE
  5
99
330
93
100
AcDbEntity
  8
FORMAT
 62
     0
100
AcDbLine
 10
0.0
 20
0.0
 30
0.0
 11
2.5
 21
0.0
 31
0.0
  0
LINE
  5
9A
330
93
100
AcDbEntity
  8
FORMAT
 62
     0
100
AcDbLine
 10
0.0
 20
5.0
 30
0.0
 11
0.0
 21
602.5
 31
0.0
  0
LINE
  5
9B
330
93
100
AcDbEntity
  8
FORMAT
 62
     0
100
AcDbLine
 10
-5.0
 20
0.0
 30
0.0
 11
-602.5
 21
0.0
 31
0.0
  0
LINE
  5
9C
330
93
100
AcDbEntity
  8
FORMAT
 62
     0
100
AcDbLine
 10
0.0
 20
-5.0
 30
0.0
 11
0.0
 21
-602.5
 31
0.0
  0
LINE
  5
9D
330
93
100
AcDbEntity
  8
FORMAT
 62
     0
100
AcDbLine
 10
5.0
 20
0.0
 30
0.0
 11
602.5
 21
0.0
 31
0.0
  0
ENDBLK
  5
95
330
93
100
AcDbEntity
  8
0
100
AcDbBlockEnd
  0
BLOCK
  5
EA
330
E9
100
AcDbEntity
  8
0
100
AcDbBlockBegin
  2
SW_CENTERMARKSYMBOL_1
 70
     0
 10
0.0
 20
0.0
 30
0.0
  3
SW_CENTERMARKSYMBOL_1
  1

  0
LINE
  5
EC
330
E9
100
AcDbEntity
  8
FORMAT
 62
     0
100
AcDbLine
 10
0.0
 20
0.0
 30
0.0
 11
0.0
 21
2.5
 31
0.0
  0
LINE
  5
ED
330
E9
100
AcDbEntity
  8
FORMAT
 62
     0
100
AcDbLine
 10
0.0
 20
0.0
 30
0.0
 11
-2.5
 21
0.0
 31
0.0
  0
LINE
  5
EE
330
E9
100
AcDbEntity
  8
FORMAT
 62
     0
100
AcDbLine
 10
0.0
 20
0.0
 30
0.0
 11
0.0
 21
-2.5
 31
0.0
  0
LINE
  5
EF
330
E9
100
AcDbEntity
  8
FORMAT
 62
     0
100
AcDbLine
 10
0.0
 20
0.0
 30
0.0
 11
2.5
 21
0.0
 31
0.0
  0
LINE
  5
F0
330
E9
100
AcDbEntity
  8
FORMAT
 62
     0
100
AcDbLine
 10
0.0
 20
5.0
 30
0.0
 11
0.0
 21
9.5
 31
0.0
  0
LINE
  5
F1
330
E9
100
AcDbEntity
  8
FORMAT
 62
     0
100
AcDbLine
 10
-5.0
 20
0.0
 30
0.0
 11
-9.5
 21
0.0
 31
0.0
  0
LINE
  5
F2
330
E9
100
AcDbEntity
  8
FORMAT
 62
     0
100
AcDbLine
 10
0.0
 20
-5.0
 30
0.0
 11
0.0
 21
-9.5
 31
0.0
  0
LINE
  5
F3
330
E9
100
AcDbEntity
  8
FORMAT
 62
     0
100
AcDbLine
 10
5.0
 20
0.0
 30
0.0
 11
9.5
 21
0.0
 31
0.0
  0
ENDBLK
  5
EB
330
E9
100
AcDbEntity
  8
0
100
AcDbBlockEnd
  0
BLOCK
  5
F6
330
F5
100
AcDbEntity
  8
0
100
AcDbBlockBegin
  2
SW_CENTERMARKSYMBOL_2
 70
     0
 10
0.0
 20
0.0
 30
0.0
  3
SW_CENTERMARKSYMBOL_2
  1

  0
LINE
  5
F8
330
F5
100
AcDbEntity
  8
FORMAT
 62
     0
100
AcDbLine
 10
0.0
 20
0.0
 30
0.0
 11
0.0
 21
2.5
 31
0.0
  0
LINE
  5
F9
330
F5
100
AcDbEntity
  8
FORMAT
 62
     0
100
AcDbLine
 10
0.0
 20
0.0
 30
0.0
 11
-2.5
 21
0.0
 31
0.0
  0
LINE
  5
FA
330
F5
100
AcDbEntity
  8
FORMAT
 62
     0
100
AcDbLine
 10
0.0
 20
0.0
 30
0.0
 11
0.0
 21
-2.5
 31
0.0
  0
LINE
  5
FB
330
F5
100
AcDbEntity
  8
FORMAT
 62
     0
100
AcDbLine
 10
0.0
 20
0.0
 30
0.0
 11
2.5
 21
0.0
 31
0.0
  0
LINE
  5
FC
330
F5
100
AcDbEntity
  8
FORMAT
 62
     0
100
AcDbLine
 10
0.0
 20
5.0
 30
0.0
 11
0.0
 21
9.5
 31
0.0
  0
LINE
  5
FD
330
F5
100
AcDbEntity
  8
FORMAT
 62
     0
100
AcDbLine
 10
-5.0
 20
0.0
 30
0.0
 11
-9.5
 21
0.0
 31
0.0
  0
LINE
  5
FE
330
F5
100
AcDbEntity
  8
FORMAT
 62
     0
100
AcDbLine
 10
0.0
 20
-5.0
 30
0.0
 11
0.0
 21
-9.5
 31
0.0
  0
LINE
  5
FF
330
F5
100
AcDbEntity
  8
FORMAT
 62
     0
100
AcDbLine
 10
5.0
 20
0.0
 30
0.0
 11
9.5
 21
0.0
 31
0.0
  0
ENDBLK
  5
F7
330
F5
100
AcDbEntity
  8
0
100
AcDbBlockEnd
  0
ENDSEC
  0
SECTION
  2
ENTITIES
  0
LINE
  5
83
330
1F
100
AcDbEntity
  8
0
  6
Continuous
 62
     7
370
    25
100
AcDbLine
 10
102.328578915
 20
849.2586589531
 30
0.0
 11
102.328578915
 21
859.2145629612
 31
0.0
  0
LINE
  5
84
330
1F
100
AcDbEntity
  8
0
  6
Continuous
 62
     7
370
    25
100
AcDbLine
 10
88.328578915
 20
859.2145629612
 30
0.0
 11
88.328578915
 21
848.6035084137
 31
0.0
  0
LINE
  5
85
330
1F
100
AcDbEntity
  8
0
  6
Continuous
 62
     7
370
    25
100
AcDbLine
 10
172.328578915
 20
848.6031048826
 30
0.0
 11
172.328578915
 21
859.2145629612
 31
0.0
  0
LINE
  5
86
330
1F
100
AcDbEntity
  8
0
  6
Continuous
 62
     7
370
    25
100
AcDbLine
 10
158.328578915
 20
859.2145629612
 30
0.0
 11
158.328578915
 21
849.2597872505
 31
0.0
  0
CIRCLE
  5
87
330
1F
100
AcDbEntity
  8
0
  6
Continuous
 62
     7
370
    25
100
AcDbCircle
 10
130.328578915
 20
109.2145629612
 30
0.0
 40
740.5
  0
ARC
  5
88
330
1F
100
AcDbEntity
  8
0
  6
Continuous
 62
     7
370
    25
100
AcDbCircle
 10
130.328578915
 20
109.2145629612
 30
0.0
 40
741.500000000002
100
AcDbArc
 50
93.2470820756
 51
180.0
  0
ARC
  5
89
330
1F
100
AcDbEntity
  8
0
  6
Continuous
 62
     7
370
    25
100
AcDbCircle
 10
130.328578915
 20
109.2145629612
 30
0.0
 40
741.5000000000019
100
AcDbArc
 50
87.8359226798
 51
92.1640773202
  0
ARC
  5
8A
330
1F
100
AcDbEntity
  8
0
  6
Continuous
 62
     7
370
    25
100
AcDbCircle
 10
130.328578915
 20
109.2145629612
 30
0.0
 40
741.500000000002
100
AcDbArc
 50
180.0
 51
86.7529179244
  0
SPLINE
  5
8B
330
1F
100
AcDbEntity
  8
0
  6
Continuous
 62
     7
370
    25
100
AcDbSpline
210
0.0
220
0.0
230
1.0
 70
     8
 71
     3
 72
    15
 73
    11
 74
     0
 42
0.00000001
 43
0.00000001
 40
0.0
 40
0.0
 40
0.0
 40
0.0
 40
0.1322759077925896
 40
0.2645485075591011
 40
0.3969017792858234
 40
0.5293414865871765
 40
0.6617917414259177
 40
0.7941441413425933
 40
0.9263178066759373
 40
1.0
 40
1.0
 40
1.0
 40
1.0
 10
101.1424332132328
 20
849.1903836033079
 30
0.0
 10
100.6395189381058
 20
849.1665047385551
 30
0.0
 10
99.6337029649986
 20
849.1187476062249
 30
0.0
 10
97.46421466853434
 20
849.0191651166299
 30
0.0
 10
95.09985260792364
 20
848.9083404959595
 30
0.0
 10
92.75028289953511
 20
848.7955874501714
 30
0.0
 10
90.68481989185543
 20
848.6950622531357
 30
0.0
 10
89.1804448622218
 20
848.6240174359474
 30
0.0
 10
88.37258972863762
 20
848.5902005107879
 30
0.0
 10
88.41217481357728
 20
848.600000642719
 30
0.0
 10
88.42634354261078
 20
848.6035084137402
 30
0.0
  0
SPLINE
  5
8C
330
1F
100
AcDbEntity
  8
0
  6
Continuous
 62
     7
370
    25
100
AcDbSpline
210
0.0
220
0.0
230
1.0
 70
     8
 71
     3
 72
    10
 73
     6
 74
     0
 42
0.00000001
 43
0.00000001
 40
0.0
 40
0.0
 40
0.0
 40
0.0
 40
0.0732447347082186
 40
0.6435334823757174
 40
1.0
 40
1.0
 40
1.0
 40
1.0
 10
102.2843246452867
 20
849.2586589530886
 30
0.0
 10
102.298560749273
 20
849.2585880387529
 30
0.0
 10
102.4236401779894
 20
849.2579649803226
 30
0.0
 10
102.0067581047653
 20
849.2336787569237
 30
0.0
 10
101.3825342528835
 20
849.2024105754532
 30
0.0
 10
101.1424332132328
 20
849.1903836033079
 30
0.0
  0
SPLINE
  5
8D
330
1F
100
AcDbEntity
  8
0
  6
Continuous
 62
     7
370
    25
100
AcDbSpline
210
0.0
220
0.0
230
1.0
 70
     8
 71
     3
 72
    15
 73
    11
 74
     0
 42
0.00000001
 43
0.00000001
 40
0.0
 40
0.0
 40
0.0
 40
0.0
 40
0.1420416198736119
 40
0.2840785811648333
 40
0.4262159410523566
 40
0.5683810992956378
 40
0.7104757630053431
 40
0.8524548040918
 40
0.9943215013594637
 40
1.0
 40
1.0
 40
1.0
 40
1.0
 10
170.3791348327591
 20
848.6760090011501
 30
0.0
 10
169.7778115397921
 20
848.7049926095735
 30
0.0
 10
168.5751846756418
 20
848.7629588758358
 30
0.0
 10
166.2530092871738
 20
848.8752812448752
 30
0.0
 10
163.8650488807856
 20
848.9878768259864
 30
0.0
 10
161.6370528762682
 20
849.0907995422847
 30
0.0
 10
159.8051059538064
 20
849.1754144495656
 30
0.0
 10
158.6864627746108
 20
849.2317008151559
 30
0.0
 10
158.2081321751841
 20
849.2598220796746
 30
0.0
 10
158.338725765791
 20
849.2597885412542
 30
0.0
 10
158.3437518564214
 20
849.2597872504779
 30
0.0
  0
SPLINE
  5
8E
330
1F
100
AcDbEntity
  8
0
  6
Continuous
 62
     7
370
    25
100
AcDbSpline
210
0.0
220
0.0
230
1.0
 70
     8
 71
     3
 72
    10
 73
     6
 74
     0
 42
0.00000001
 43
0.00000001
 40
0.0
 40
0.0
 40
0.0
 40
0.0
 40
0.2855419917043985
 40
0.7254118011563621
 40
1.0
 40
1.0
 40
1.0
 40
1.0
 10
172.2382055651135
 20
848.6031048826293
 30
0.0
 10
172.2409672456087
 20
848.5997993422038
 30
0.0
 10
172.2479832211233
 20
848.5914017050669
 30
0.0
 10
171.5079902736788
 20
848.6228138932994
 30
0.0
 10
170.6925381702771
 20
848.6612404809872
 30
0.0
 10
170.3791348327591
 20
848.6760090011501
 30
0.0
  0
CIRCLE
  5
8F
330
1F
100
AcDbEntity
  8
0
  6
Continuous
 62
     7
370
    25
100
AcDbCircle
 10
130.328578915
 20
109.2145629612
 30
0.0
 40
599.9999999999999
  0
LINE
  5
90
330
1F
100
AcDbEntity
  8
0
  6
Continuous
 62
     7
370
    25
100
AcDbLine
 10
95.328578915
 20
859.2145629612
 30
0.0
 11
88.328578915
 21
859.2145629612
 31
0.0
  0
LINE
  5
91
330
1F
100
AcDbEntity
  8
0
  6
Continuous
 62
     7
370
    25
100
AcDbLine
 10
102.328578915
 20
859.2145629612
 30
0.0
 11
95.328578915
 21
859.2145629612
 31
0.0
  0
LINE
  5
92
330
1F
100
AcDbEntity
  8
0
  6
Continuous
 62
     7
370
    25
100
AcDbLine
 10
172.328578915
 20
859.2145629612
 30
0.0
 11
158.328578915
 21
859.2145629612
 31
0.0
  0
INSERT
  5
9E
330
1F
100
AcDbEntity
  8
FORMAT
 62
     7
100
AcDbBlockReference
  2
SW_CENTERMARKSYMBOL_0
 10
130.328578915
 20
109.2145629612
 30
0.0
  0
LINE
  5
9F
330
1F
100
AcDbEntity
  8
0
  6
Continuous
 62
     7
370
    25
100
AcDbLine
 10
1766.1593551452
 20
-632.2854370388
 30
0.0
 11
1791.1593551452
 21
-632.2854370388
 31
0.0
  0
LINE
  5
A0
330
1F
100
AcDbEntity
  8
0
  6
Continuous
 62
     7
370
    25
100
AcDbLine
 10
1791.1593551452
 20
850.7145629612
 30
0.0
 11
1766.1593551452
 21
850.7145629612
 31
0.0
  0
LINE
  5
A1
330
1F
100
AcDbEntity
  8
0
  6
Continuous
 62
     7
370
    25
100
AcDbLine
 10
2103.6593551452
 20
849.7145629612
 30
0.0
 11
2098.6593551452
 21
849.746307276
 31
0.0
  0
ARC
  5
A2
330
1F
100
AcDbEntity
  8
0
  6
Continuous
 62
     7
370
    25
100
AcDbCircle
 10
1791.1593551452
 20
-47977.9104370403
 30
0.0
 40
48828.62500000154
100
AcDbArc
 50
89.6556033976
 51
90.0
  0
ARC
  5
A3
330
1F
100
AcDbEntity
  8
0
  6
Continuous
 62
     7
370
    25
100
AcDbCircle
 10
1791.1593551452
 20
48196.3395629627
 30
0.0
 40
48828.62500000152
100
AcDbArc
 50
270.0
 51
270.3666917372
  0
ARC
  5
A4
330
1F
100
AcDbEntity
  8
0
  6
Continuous
 62
     7
370
    25
100
AcDbCircle
 10
1766.1593551452
 20
-47977.9104370403
 30
0.0
 40
48828.62500000154
100
AcDbArc
 50
90.0
 51
90.3443966024
  0
LINE
  5
A5
330
1F
100
AcDbEntity
  8
0
  6
Continuous
 62
     7
370
    25
100
AcDbLine
 10
1458.6593551452
 20
849.746307276
 30
0.0
 11
1453.6593551452
 21
849.7145629612
 31
0.0
  0
ARC
  5
A6
330
1F
100
AcDbEntity
  8
0
  6
Continuous
 62
     7
370
    25
100
AcDbCircle
 10
1766.1593551452
 20
48196.3395629627
 30
0.0
 40
48828.62500000152
100
AcDbArc
 50
269.6333082628
 51
270.0
  0
LINE
  5
A7
330
1F
100
AcDbEntity
  8
0
  6
Continuous
 62
     7
370
    25
100
AcDbLine
 10
1472.6593551452
 20
849.0042811684
 30
0.0
 11
1472.6593551452
 21
859.2145629612
 31
0.0
  0
LINE
  5
A8
330
1F
100
AcDbEntity
  8
0
  6
Continuous
 62
     7
370
    25
100
AcDbLine
 10
1458.6593551452
 20
859.2145629612
 30
0.0
 11
1458.6593551452
 21
848.9182231063
 31
0.0
  0
LINE
  5
A9
330
1F
100
AcDbEntity
  8
0
  6
Continuous
 62
     7
370
    25
100
AcDbLine
 10
2098.6593551452
 20
848.9184142227
 30
0.0
 11
2098.6593551452
 21
859.2145629612
 31
0.0
  0
LINE
  5
AA
330
1F
100
AcDbEntity
  8
0
  6
Continuous
 62
     7
370
    25
100
AcDbLine
 10
2084.6593551452
 20
859.2145629612
 30
0.0
 11
2084.6593551452
 21
849.0036521044
 31
0.0
  0
LINE
  5
AB
330
1F
100
AcDbEntity
  8
0
  6
Continuous
 62
     7
370
    25
100
AcDbLine
 10
2103.6593551452
 20
109.2145629612
 30
0.0
 11
2103.6593551452
 21
849.7145629612
 31
0.0
  0
LINE
  5
AC
330
1F
100
AcDbEntity
  8
0
  6
Continuous
 62
     7
370
    25
100
AcDbLine
 10
2103.6593551452
 20
-631.2854370388
 30
0.0
 11
2103.6593551452
 21
109.2145629612
 31
0.0
  0
SPLINE
  5
AD
330
1F
100
AcDbEntity
  8
0
  6
Continuous
 62
     7
370
    25
100
AcDbSpline
210
0.0
220
0.0
230
1.0
 70
     8
 71
     3
 72
    18
 73
    14
 74
     0
 42
0.00000001
 43
0.00000001
 40
0.0
 40
0.0
 40
0.0
 40
0.0
 40
0.010193666604812
 40
0.1177521570442448
 40
0.2253192134736095
 40
0.3328067988144773
 40
0.4401492281265063
 40
0.5473568442386477
 40
0.6545253333062571
 40
0.7617804768666709
 40
0.8691959734739776
 40
0.9767487778963753
 40
1.0
 40
1.0
 40
1.0
 40
1.0
 10
2098.625374455445
 20
848.9184142227151
 30
0.0
 10
2098.636469335503
 20
848.9149649280234
 30
0.0
 10
2098.764631861283
 20
848.8751203945544
 30
0.0
 10
2098.259353165884
 20
848.795147068681
 30
0.0
 10
2097.094610578313
 20
848.6955100821989
 30
0.0
 10
2095.234567239531
 20
848.622668118981
 30
0.0
 10
2092.994779100808
 20
848.5893087911214
 30
0.0
 10
2090.599655468191
 20
848.6014073008357
 30
0.0
 10
2088.331389696473
 20
848.657586225589
 30
0.0
 10
2086.418763250417
 20
848.7496845742968
 30
0.0
 10
2085.160870351508
 20
848.8622778953174
 30
0.0
 10
2084.589454143145
 20
848.9528535295378
 30
0.0
 10
2084.705996393951
 20
848.9959851864486
 30
0.0
 10
2084.726712497499
 20
849.0036521043651
 30
0.0
  0
LINE
  5
AE
330
1F
100
AcDbEntity
  8
0
  6
Continuous
 62
     7
370
    25
100
AcDbLine
 10
1453.6593551452
 20
109.2145629612
 30
0.0
 11
1453.6593551452
 21
849.7145629612
 31
0.0
  0
LINE
  5
AF
330
1F
100
AcDbEntity
  8
0
  6
Continuous
 62
     7
370
    25
100
AcDbLine
 10
1453.6593551452
 20
-631.2854370388
 30
0.0
 11
1453.6593551452
 21
109.2145629612
 31
0.0
  0
SPLINE
  5
B0
330
1F
100
AcDbEntity
  8
0
  6
Continuous
 62
     7
370
    25
100
AcDbSpline
210
0.0
220
0.0
230
1.0
 70
     8
 71
     3
 72
    18
 73
    14
 74
     0
 42
0.00000001
 43
0.00000001
 40
0.0
 40
0.0
 40
0.0
 40
0.0
 40
0.0097259918528773
 40
0.1172461562045252
 40
0.2248371635800439
 40
0.3324055725685968
 40
0.4398499036499791
 40
0.5471302554151641
 40
0.6543049392274903
 40
0.7614965166160725
 40
0.8688111355359124
 40
0.9762753013706451
 40
1.0
 40
1.0
 40
1.0
 40
1.0
 10
1472.626801770925
 20
849.0042811683776
 30
0.0
 10
1472.637445084153
 20
849.0011220984957
 30
0.0
 10
1472.765749485809
 20
848.9630397305026
 30
0.0
 10
1472.262923761201
 20
848.8770339662781
 30
0.0
 10
1471.102123185733
 20
848.7630182193071
 30
0.0
 10
1469.243821399833
 20
848.6670918879142
 30
0.0
 10
1467.003963181142
 20
848.6059189017228
 30
0.0
 10
1464.607513785787
 20
848.5883162269552
 30
0.0
 10
1462.337809956594
 20
848.6164077307685
 30
0.0
 10
1460.424130400743
 20
848.684819202701
 30
0.0
 10
1459.16415273946
 20
848.7818014860151
 30
0.0
 10
1458.590895289579
 20
848.8654248341345
 30
0.0
 10
1458.706719998896
 20
848.9101371577663
 30
0.0
 10
1458.727666184638
 20
848.9182231062769
 30
0.0
  0
LINE
  5
B1
330
1F
100
AcDbEntity
  8
0
  6
Continuous
 62
     7
370
    25
100
AcDbLine
 10
1472.6593551452
 20
859.2145629612
 30
0.0
 11
1458.6593551452
 21
859.2145629612
 31
0.0
  0
LINE
  5
B2
330
1F
100
AcDbEntity
  8
0
  6
Continuous
 62
     7
370
    25
100
AcDbLine
 10
2098.6593551452
 20
859.2145629612
 30
0.0
 11
2084.6593551452
 21
859.2145629612
 31
0.0
  0
LINE
  5
B3
330
1F
100
AcDbEntity
  8
0
  6
Continuous
 62
     1
370
    25
100
AcDbLine
 10
1791.1593551452
 20
109.2145629612
 30
0.0
 11
1791.1593551452
 21
850.7145629612
 31
0.0
  0
LINE
  5
B4
330
1F
100
AcDbEntity
  8
0
  6
Continuous
 62
     1
370
    25
100
AcDbLine
 10
1791.1593551452
 20
-632.2854370388
 30
0.0
 11
1791.1593551452
 21
109.2145629612
 31
0.0
  0
LINE
  5
B5
330
1F
100
AcDbEntity
  8
0
  6
Continuous
 62
     1
370
    25
100
AcDbLine
 10
1766.1593551452
 20
109.2145629612
 30
0.0
 11
1766.1593551452
 21
850.7145629612
 31
0.0
  0
LINE
  5
B6
330
1F
100
AcDbEntity
  8
0
  6
Continuous
 62
     1
370
    25
100
AcDbLine
 10
1766.1593551452
 20
-632.2854370388
 30
0.0
 11
1766.1593551452
 21
109.2145629612
 31
0.0
  0
LINE
  5
B7
330
1F
100
AcDbEntity
  8
0
  6
Continuous
 62
     7
370
    25
100
AcDbLine
 10
871.828578915
 20
1666.3709056647
 30
0.0
 11
871.828578915
 21
1691.3709056647
 31
0.0
  0
LINE
  5
B8
330
1F
100
AcDbEntity
  8
0
  6
Continuous
 62
     7
370
    25
100
AcDbLine
 10
-611.171421085
 20
1691.3709056647
 30
0.0
 11
-611.171421085
 21
1666.3709056647
 31
0.0
  0
ARC
  5
B9
330
1F
100
AcDbEntity
  8
0
  6
Continuous
 62
     7
370
    25
100
AcDbCircle
 10
48217.4535789165
 20
1691.3709056647
 30
0.0
 40
48828.62500000152
100
AcDbArc
 50
179.6333082628
 51
180.0
  0
ARC
  5
BA
330
1F
100
AcDbEntity
  8
0
  6
Continuous
 62
     7
370
    25
100
AcDbCircle
 10
-47956.7964210865
 20
1691.3709056647
 30
0.0
 40
48828.62500000153
100
AcDbArc
 50
0.0
 51
0.3666917372
  0
ARC
  5
BB
330
1F
100
AcDbEntity
  8
0
  6
Continuous
 62
     7
370
    25
100
AcDbCircle
 10
48217.4535789165
 20
1666.3709056647
 30
0.0
 40
48828.62500000152
100
AcDbArc
 50
180.0
 51
180.3666917372
  0
ARC
  5
BC
330
1F
100
AcDbEntity
  8
0
  6
Continuous
 62
     7
370
    25
100
AcDbCircle
 10
-47956.7964210865
 20
1666.3709056647
 30
0.0
 40
48828.62500000153
100
AcDbArc
 50
359.6333082628
 51
0.0
  0
LINE
  5
BD
330
1F
100
AcDbEntity
  8
0
  6
Continuous
 62
     7
370
    25
100
AcDbLine
 10
870.828578915
 20
2003.8709056647
 30
0.0
 11
-610.171421085
 21
2003.8709056647
 31
0.0
  0
LINE
  5
BE
330
1F
100
AcDbEntity
  8
0
  6
Continuous
 62
     7
370
    25
100
AcDbLine
 10
870.828578915
 20
1353.8709056647
 30
0.0
 11
-610.171421085
 21
1353.8709056647
 31
0.0
  0
LINE
  5
BF
330
1F
100
AcDbEntity
  8
0
  6
Continuous
 62
     1
370
    25
100
AcDbLine
 10
871.828578915
 20
1691.3709056647
 30
0.0
 11
-611.171421085
 21
1691.3709056647
 31
0.0
  0
LINE
  5
C0
330
1F
100
AcDbEntity
  8
0
  6
Continuous
 62
     1
370
    25
100
AcDbLine
 10
871.828578915
 20
1666.3709056647
 30
0.0
 11
-611.171421085
 21
1666.3709056647
 31
0.0
  0
LINE
  5
C1
330
1F
100
AcDbEntity
  8
0
  6
Continuous
 62
     7
370
    25
100
AcDbLine
 10
-1468.6823896569
 20
850.7145629612
 30
0.0
 11
-1493.6823896569
 21
850.7145629612
 31
0.0
  0
LINE
  5
C2
330
1F
100
AcDbEntity
  8
0
  6
Continuous
 62
     7
370
    25
100
AcDbLine
 10
-1493.6823896569
 20
-632.2854370388
 30
0.0
 11
-1468.6823896569
 21
-632.2854370388
 31
0.0
  0
ARC
  5
C3
330
1F
100
AcDbEntity
  8
0
  6
Continuous
 62
     7
370
    25
100
AcDbCircle
 10
-1493.6823896569
 20
48196.3395629627
 30
0.0
 40
48828.62500000152
100
AcDbArc
 50
269.6333082628
 51
270.0
  0
ARC
  5
C4
330
1F
100
AcDbEntity
  8
0
  6
Continuous
 62
     7
370
    25
100
AcDbCircle
 10
-1493.6823896569
 20
-47977.9104370403
 30
0.0
 40
48828.62500000154
100
AcDbArc
 50
90.0
 51
90.3443966024
  0
LINE
  5
C5
330
1F
100
AcDbEntity
  8
0
  6
Continuous
 62
     7
370
    25
100
AcDbLine
 10
-1801.1823896569
 20
849.746307276
 30
0.0
 11
-1806.1823896569
 21
849.7145629612
 31
0.0
  0
ARC
  5
C6
330
1F
100
AcDbEntity
  8
0
  6
Continuous
 62
     7
370
    25
100
AcDbCircle
 10
-1468.6823896569
 20
48196.3395629627
 30
0.0
 40
48828.62500000152
100
AcDbArc
 50
270.0
 51
270.3666917372
  0
LINE
  5
C7
330
1F
100
AcDbEntity
  8
0
  6
Continuous
 62
     7
370
    25
100
AcDbLine
 10
-1156.1823896569
 20
849.7145629612
 30
0.0
 11
-1161.1823896569
 21
849.746307276
 31
0.0
  0
ARC
  5
C8
330
1F
100
AcDbEntity
  8
0
  6
Continuous
 62
     7
370
    25
100
AcDbCircle
 10
-1468.6823896569
 20
-47977.9104370403
 30
0.0
 40
48828.62500000154
100
AcDbArc
 50
89.6556033976
 51
90.0
  0
LINE
  5
C9
330
1F
100
AcDbEntity
  8
0
  6
Continuous
 62
     7
370
    25
100
AcDbLine
 10
-1161.1823896569
 20
848.9182097623
 30
0.0
 11
-1161.1823896569
 21
859.2145629612
 31
0.0
  0
LINE
  5
CA
330
1F
100
AcDbEntity
  8
0
  6
Continuous
 62
     7
370
    25
100
AcDbLine
 10
-1175.1823896569
 20
859.2145629612
 30
0.0
 11
-1175.1823896569
 21
849.003366506
 31
0.0
  0
LINE
  5
CB
330
1F
100
AcDbEntity
  8
0
  6
Continuous
 62
     7
370
    25
100
AcDbLine
 10
-1787.1823896569
 20
849.0034444866
 30
0.0
 11
-1787.1823896569
 21
859.2145629612
 31
0.0
  0
LINE
  5
CC
330
1F
100
AcDbEntity
  8
0
  6
Continuous
 62
     7
370
    25
100
AcDbLine
 10
-1801.1823896569
 20
859.2145629612
 30
0.0
 11
-1801.1823896569
 21
848.918274081
 31
0.0
  0
LINE
  5
CD
330
1F
100
AcDbEntity
  8
0
  6
Continuous
 62
     7
370
    25
100
AcDbLine
 10
-1806.1823896569
 20
849.7145629612
 30
0.0
 11
-1806.1823896569
 21
-631.2854370388
 31
0.0
  0
SPLINE
  5
CE
330
1F
100
AcDbEntity
  8
0
  6
Continuous
 62
     7
370
    25
100
AcDbSpline
210
0.0
220
0.0
230
1.0
 70
     8
 71
     3
 72
    10
 73
     6
 74
     0
 42
0.00000001
 43
0.00000001
 40
0.0
 40
0.0
 40
0.0
 40
0.0
 40
0.4188362550495261
 40
0.837658773398501
 40
1.0
 40
1.0
 40
1.0
 40
1.0
 10
-1799.029232435638
 20
848.6760090011578
 30
0.0
 10
-1799.534349805638
 20
848.7049409845533
 30
0.0
 10
-1800.544567979148
 20
848.7628040024524
 30
0.0
 10
-1801.195728716384
 20
848.8527936063965
 30
0.0
 10
-1801.111478564859
 20
848.9039766909814
 30
0.0
 10
-1801.087944280316
 20
848.9182740810113
 30
0.0
  0
SPLINE
  5
CF
330
1F
100
AcDbEntity
  8
0
  6
Continuous
 62
     7
370
    25
100
AcDbSpline
210
0.0
220
0.0
230
1.0
 70
     8
 71
     3
 72
    15
 73
    11
 74
     0
 42
0.00000001
 43
0.00000001
 40
0.0
 40
0.0
 40
0.0
 40
0.0
 40
0.0432990748336216
 40
0.1879183728380964
 40
0.332611527474658
 40
0.4772435499469971
 40
0.6216877928374444
 40
0.7659170394726814
 40
0.9100347147559852
 40
1.0
 40
1.0
 40
1.0
 40
1.0
 10
-1787.265681716711
 20
849.0034444865828
 30
0.0
 10
-1787.241836482883
 20
848.9927175527752
 30
0.0
 10
-1787.13834795436
 20
848.9461625639117
 30
0.0
 10
-1787.761100297061
 20
848.8524792238874
 30
0.0
 10
-1789.084347921063
 20
848.7407387411561
 30
0.0
 10
-1791.040652737094
 20
848.6510697743188
 30
0.0
 10
-1793.337399998542
 20
848.5983646479584
 30
0.0
 10
-1795.72244144584
 20
848.5907561340742
 30
0.0
 10
-1797.683009783342
 20
848.6222073232263
 30
0.0
 10
-1798.65548159299
 20
848.6610720793728
 30
0.0
 10
-1799.029232435638
 20
848.6760090011578
 30
0.0
  0
LINE
  5
D0
330
1F
100
AcDbEntity
  8
0
  6
Continuous
 62
     7
370
    25
100
AcDbLine
 10
-1156.1823896569
 20
849.7145629612
 30
0.0
 11
-1156.1823896569
 21
-631.2854370388
 31
0.0
  0
SPLINE
  5
D1
330
1F
100
AcDbEntity
  8
0
  6
Continuous
 62
     7
370
    25
100
AcDbSpline
210
0.0
220
0.0
230
1.0
 70
     8
 71
     3
 72
    10
 73
     6
 74
     0
 42
0.00000001
 43
0.00000001
 40
0.0
 40
0.0
 40
0.0
 40
0.0
 40
0.4160347483238487
 40
0.8320605350451268
 40
0.9999999999999999
 40
0.9999999999999999
 40
0.9999999999999999
 40
0.9999999999999999
 10
-1172.999636059543
 20
848.7340449594074
 30
0.0
 10
-1173.508690979517
 20
848.7691071879589
 30
0.0
 10
-1174.526789854159
 20
848.8392308898032
 30
0.0
 10
-1175.190245451615
 20
848.9378869270685
 30
0.0
 10
-1175.109673344032
 20
848.988741507343
 30
0.0
 10
-1175.086502039577
 20
849.0033665059664
 30
0.0
  0
SPLINE
  5
D2
330
1F
100
AcDbEntity
  8
0
  6
Continuous
 62
     7
370
    25
100
AcDbSpline
210
0.0
220
0.0
230
1.0
 70
     8
 71
     3
 72
    15
 73
    11
 74
     0
 42
0.00000001
 43
0.00000001
 40
0.0
 40
0.0
 40
0.0
 40
0.0
 40
0.0410736638012426
 40
0.1861005197244774
 40
0.3311178010855699
 40
0.4760064229241726
 40
0.6206925521435661
 40
0.765213604782051
 40
0.9097141806021928
 40
1.0
 40
1.0
 40
1.0
 40
1.0
 10
-1161.263066243009
 20
848.9182097623413
 30
0.0
 10
-1161.239583360502
 20
848.9077909153498
 30
0.0
 10
-1161.133184850243
 20
848.8605841979397
 30
0.0
 10
-1161.745874828944
 20
848.7750126887253
 30
0.0
 10
-1163.057357311755
 20
848.6792218377557
 30
0.0
 10
-1165.005712128547
 20
848.6131033789626
 30
0.0
 10
-1167.297198781678
 20
848.5879897062507
 30
0.0
 10
-1169.681712323677
 20
848.608991837787
 30
0.0
 10
-1171.64639158578
 20
848.6639863457879
 30
0.0
 10
-1172.623784846594
 20
848.7145868234851
 30
0.0
 10
-1172.999636059543
 20
848.7340449594074
 30
0.0
  0
LINE
  5
D3
330
1F
100
AcDbEntity
  8
0
  6
Continuous
 62
     7
370
    25
100
AcDbLine
 10
-1161.1823896569
 20
859.2145629612
 30
0.0
 11
-1175.1823896569
 21
859.2145629612
 31
0.0
  0
LINE
  5
D4
330
1F
100
AcDbEntity
  8
0
  6
Continuous
 62
     7
370
    25
100
AcDbLine
 10
-1787.1823896569
 20
859.2145629612
 30
0.0
 11
-1801.1823896569
 21
859.2145629612
 31
0.0
  0
LINE
  5
D5
330
1F
100
AcDbEntity
  8
0
  6
Continuous
 62
     1
370
    25
100
AcDbLine
 10
-1493.6823896569
 20
850.7145629612
 30
0.0
 11
-1493.6823896569
 21
-632.2854370388
 31
0.0
  0
LINE
  5
D6
330
1F
100
AcDbEntity
  8
0
  6
Continuous
 62
     1
370
    25
100
AcDbLine
 10
-1468.6823896569
 20
850.7145629612
 30
0.0
 11
-1468.6823896569
 21
-632.2854370388
 31
0.0
  0
LINE
  5
D7
330
1F
100
AcDbEntity
  8
0
  6
Continuous
 62
     7
370
    25
100
AcDbLine
 10
-611.171421085
 20
-1936.1037827995
 30
0.0
 11
-611.171421085
 21
-1961.1037827995
 31
0.0
  0
LINE
  5
D8
330
1F
100
AcDbEntity
  8
0
  6
Continuous
 62
     7
370
    25
100
AcDbLine
 10
871.828578915
 20
-1961.1037827995
 30
0.0
 11
871.828578915
 21
-1936.1037827995
 31
0.0
  0
ARC
  5
D9
330
1F
100
AcDbEntity
  8
0
  6
Continuous
 62
     7
370
    25
100
AcDbCircle
 10
-47956.7964210865
 20
-1961.1037827995
 30
0.0
 40
48828.62500000153
100
AcDbArc
 50
359.6333082628
 51
0.0
  0
ARC
  5
DA
330
1F
100
AcDbEntity
  8
0
  6
Continuous
 62
     7
370
    25
100
AcDbCircle
 10
48217.4535789165
 20
-1961.1037827995
 30
0.0
 40
48828.62500000152
100
AcDbArc
 50
180.0
 51
180.3666917372
  0
ARC
  5
DB
330
1F
100
AcDbEntity
  8
0
  6
Continuous
 62
     7
370
    25
100
AcDbCircle
 10
-47956.7964210865
 20
-1936.1037827995
 30
0.0
 40
48828.62500000153
100
AcDbArc
 50
0.0
 51
0.3666917372
  0
ARC
  5
DC
330
1F
100
AcDbEntity
  8
0
  6
Continuous
 62
     7
370
    25
100
AcDbCircle
 10
48217.4535789165
 20
-1936.1037827995
 30
0.0
 40
48828.62500000152
100
AcDbArc
 50
179.6333082628
 51
180.0
  0
CIRCLE
  5
DD
330
1F
100
AcDbEntity
  8
0
  6
Continuous
 62
     7
370
    25
100
AcDbCircle
 10
165.328578915
 20
-1635.6037827995
 30
0.0
 40
7.000000000000227
  0
CIRCLE
  5
DE
330
1F
100
AcDbEntity
  8
0
  6
Continuous
 62
     7
370
    25
100
AcDbCircle
 10
165.328578915
 20
-1635.6037827995
 30
0.0
 40
5.000000000000227
  0
CIRCLE
  5
DF
330
1F
100
AcDbEntity
  8
0
  6
Continuous
 62
     7
370
    25
100
AcDbCircle
 10
95.328578915
 20
-1635.6037827995
 30
0.0
 40
4.999999999999773
  0
CIRCLE
  5
E0
330
1F
100
AcDbEntity
  8
0
  6
Continuous
 62
     7
370
    25
100
AcDbCircle
 10
95.328578915
 20
-1635.6037827995
 30
0.0
 40
6.999999999999773
  0
CIRCLE
  5
E1
330
1F
100
AcDbEntity
  8
0
  6
Continuous
 62
     7
370
    25
100
AcDbCircle
 10
165.328578915
 20
-2261.6037827995
 30
0.0
 40
7.0
  0
CIRCLE
  5
E2
330
1F
100
AcDbEntity
  8
0
  6
Continuous
 62
     7
370
    25
100
AcDbCircle
 10
165.328578915
 20
-2261.6037827995
 30
0.0
 40
5.000000000000455
  0
CIRCLE
  5
E3
330
1F
100
AcDbEntity
  8
0
  6
Continuous
 62
     7
370
    25
100
AcDbCircle
 10
95.328578915
 20
-2261.6037827995
 30
0.0
 40
5.0
  0
CIRCLE
  5
E4
330
1F
100
AcDbEntity
  8
0
  6
Continuous
 62
     7
370
    25
100
AcDbCircle
 10
95.328578915
 20
-2261.6037827995
 30
0.0
 40
6.999999999999545
  0
LINE
  5
E5
330
1F
100
AcDbEntity
  8
0
  6
Continuous
 62
     7
370
    25
100
AcDbLine
 10
-610.171421085
 20
-2273.6037827995
 30
0.0
 11
870.828578915
 21
-2273.6037827995
 31
0.0
  0
LINE
  5
E6
330
1F
100
AcDbEntity
  8
0
  6
Continuous
 62
     7
370
    25
100
AcDbLine
 10
-610.171421085
 20
-1623.6037827995
 30
0.0
 11
870.828578915
 21
-1623.6037827995
 31
0.0
  0
LINE
  5
E7
330
1F
100
AcDbEntity
  8
0
  6
Continuous
 62
     1
370
    25
100
AcDbLine
 10
-611.171421085
 20
-1961.1037827995
 30
0.0
 11
871.828578915
 21
-1961.1037827995
 31
0.0
  0
LINE
  5
E8
330
1F
100
AcDbEntity
  8
0
  6
Continuous
 62
     1
370
    25
100
AcDbLine
 10
-611.171421085
 20
-1936.1037827995
 30
0.0
 11
871.828578915
 21
-1936.1037827995
 31
0.0
  0
INSERT
  5
F4
330
1F
100
AcDbEntity
  8
FORMAT
 62
     7
100
AcDbBlockReference
  2
SW_CENTERMARKSYMBOL_1
 10
130.328578915
 20
-1915.6037827995
 30
0.0
  0
INSERT
  5
100
330
1F
100
AcDbEntity
  8
FORMAT
 62
     7
100
AcDbBlockReference
  2
SW_CENTERMARKSYMBOL_2
 10
130.328578915
 20
-1981.6037827995
 30
0.0
  0
SPLINE
  5
101
330
1F
100
AcDbEntity
  8
0
  6
Continuous
 62
     7
370
    25
100
AcDbSpline
210
0.0
220
0.0
230
1.0
 70
     8
 71
     3
 72
    10
 73
     6
 74
     0
 42
0.00000001
 43
0.00000001
 40
0.0
 40
0.0
 40
0.0
 40
0.0
 40
0.247614444772859
 40
0.6435228189010742
 40
1.0
 40
1.0
 40
1.0
 40
1.0
 10
1566.09619862165
 20
-1105.04232750894
 30
0.0
 10
1547.718087717191
 20
-1115.649592833262
 30
0.0
 10
1499.955390568552
 20
-1143.216713518006
 30
0.0
 10
1425.895008135503
 20
-1186.331332013829
 30
0.0
 10
1370.288148134615
 20
-1218.964770369645
 30
0.0
 10
1343.941846607209
 20
-1234.426359223693
 30
0.0
  0
SPLINE
  5
102
330
1F
100
AcDbEntity
  8
0
  6
Continuous
 62
     7
370
    25
100
AcDbSpline
210
0.0
220
0.0
230
1.0
 70
     8
 71
     3
 72
    11
 73
     7
 74
     0
 42
0.00000001
 43
0.00000001
 40
0.0
 40
0.0
 40
0.0
 40
0.0
 40
0.0598674978527977
 40
0.4557851166454409
 40
0.8517010286856224
 40
1.0
 40
1.0
 40
1.0
 40
1.0
 10
2084.35620019433
 20
-2517.002148081227
 30
0.0
 10
2088.822461707745
 20
-2514.477807080111
 30
0.0
 10
2122.825144262916
 20
-2495.259414815326
 30
0.0
 10
2186.208433654377
 20
-2459.069370162086
 30
0.0
 10
2256.125887543676
 20
-2419.039556029893
 30
0.0
 10
2296.497632986224
 20
-2395.691148492608
 30
0.0
 10
2307.498964449986
 20
-2389.328689608234
 30
0.0
  0
LINE
  5
103
330
1F
100
AcDbEntity
  8
0
  6
Continuous
 62
     7
370
    25
100
AcDbLine
 10
1583.7553661212
 20
-1094.8051842683
 30
0.0
 11
1566.0776965915
 21
-1105.0102856661
 31
0.0
  0
LINE
  5
104
330
1F
100
AcDbEntity
  8
0
  6
Continuous
 62
     7
370
    25
100
AcDbLine
 10
2307.5174368412
 20
-2389.3607485766
 30
0.0
 11
2325.1951063709
 21
-2379.1556471789
 31
0.0
  0
SPLINE
  5
105
330
1F
100
AcDbEntity
  8
0
  6
Continuous
 62
     7
370
    25
100
AcDbSpline
210
0.0
220
0.0
230
1.0
 70
     8
 71
     3
 72
    11
 73
     7
 74
     0
 42
0.00000001
 43
0.00000001
 40
0.0
 40
0.0
 40
0.0
 40
0.0
 40
0.0598659008515977
 40
0.4557842482597164
 40
0.8517008889151719
 40
1.0
 40
1.0
 40
1.0
 40
1.0
 10
1806.916220730458
 20
-967.1640007885128
 30
0.0
 10
1802.450086587994
 20
-969.688269826554
 30
0.0
 10
1768.447531480773
 20
-988.9065902651088
 30
0.0
 10
1705.064369385487
 20
-1025.096562821259
 30
0.0
 10
1635.146925304362
 20
-1065.126371116696
 30
0.0
 10
1594.775189738014
 20
-1088.474772939723
 30
0.0
 10
1583.773868151317
 20
-1094.837226111161
 30
0.0
  0
SPLINE
  5
106
330
1F
100
AcDbEntity
  8
0
  6
Continuous
 62
     7
370
    25
100
AcDbSpline
210
0.0
220
0.0
230
1.0
 70
     8
 71
     3
 72
    10
 73
     6
 74
     0
 42
0.00000001
 43
0.00000001
 40
0.0
 40
0.0
 40
0.0
 40
0.0
 40
0.24761394905104
 40
0.643521743476925
 40
1.0
 40
1.0
 40
1.0
 40
1.0
 10
2325.176633979648
 20
-2379.123588210451
 30
0.0
 10
2343.554735003037
 20
-2368.516328592199
 30
0.0
 10
2391.317422273647
 20
-2340.949213616607
 30
0.0
 10
2465.37791306034
 20
-2297.834531836367
 30
0.0
 10
2520.98489108384
 20
-2265.201024130964
 30
0.0
 10
2547.331310653065
 20
-2249.739365961755
 30
0.0
  0
LINE
  5
107
330
1F
100
AcDbEntity
  8
0
  6
Continuous
 62
     7
370
    25
100
AcDbLine
 10
1756.0607163113
 20
-1280.2834844054
 30
0.0
 11
1756.0607163113
 21
-1271.7323689653
 31
0.0
  0
LINE
  5
108
330
1F
100
AcDbEntity
  8
0
  6
Continuous
 62
     7
370
    25
100
AcDbLine
 10
1742.0607163113
 20
-1271.7323689653
 30
0.0
 11
1742.0607163113
 21
-1279.9529421523
 31
0.0
  0
LINE
  5
109
330
1F
100
AcDbEntity
  8
0
  6
Continuous
 62
     7
370
    25
100
AcDbLine
 10
1706.5632416283
 20
-1251.3300854296
 30
0.0
 11
1706.5632416283
 21
-1243.1580850515
 31
0.0
  0
LINE
  5
10A
330
1F
100
AcDbEntity
  8
0
  6
Continuous
 62
     7
370
    25
100
AcDbLine
 10
1692.5632416283
 20
-1243.1580850515
 30
0.0
 11
1692.5632416283
 21
-1251.7569264619
 31
0.0
  0
LINE
  5
10B
330
1F
100
AcDbEntity
  8
0
  6
Continuous
 62
     7
370
    25
100
AcDbLine
 10
2198.7095613341
 20
-1024.7972991109
 30
0.0
 11
2198.7095613341
 21
-1016.1966299648
 31
0.0
  0
LINE
  5
10C
330
1F
100
AcDbEntity
  8
0
  6
Continuous
 62
     7
370
    25
100
AcDbLine
 10
2184.7095613341
 20
-1016.1966299648
 30
0.0
 11
2184.7095613341
 21
-1024.3679408947
 31
0.0
  0
LINE
  5
10D
330
1F
100
AcDbEntity
  8
0
  6
Continuous
 62
     7
370
    25
100
AcDbLine
 10
2149.2120866511
 20
-995.8434181582
 30
0.0
 11
2149.2120866511
 21
-987.622346051
 31
0.0
  0
LINE
  5
10E
330
1F
100
AcDbEntity
  8
0
  6
Continuous
 62
     7
370
    25
100
AcDbLine
 10
2135.2120866511
 20
-987.622346051
 30
0.0
 11
2135.2120866511
 21
-996.1717966073
 31
0.0
  0
LWPOLYLINE
  5
10F
330
1F
100
AcDbEntity
  8
0
  6
Continuous
 62
     7
370
    25
100
AcDbPolyline
 90
      241
 70
   128
 43
0.0
 10
1192.2141261269
 20
-1572.4741811913
 10
1192.3935550777
 20
-1556.7499115447
 10
1192.9317189582
 20
-1541.2435827839
 10
1193.8282489379
 20
-1525.9658221722
 10
1195.0825305799
 20
-1510.9271003235
 10
1196.6937042623
 20
-1496.1377240266
 10
1198.660665767
 20
-1481.6078291812
 10
1200.9820670369
 20
-1467.3473738515
 10
1203.6563170995
 20
-1453.3661314412
 10
1206.6815831574
 20
-1439.6736839956
 10
1210.0557918444
 20
-1426.2794156341
 10
1213.7766306464
 20
-1413.1925061192
 10
1217.8415494863
 20
-1400.421924565
 10
1222.2477624718
 20
-1387.9764232902
 10
1226.9922498046
 20
-1375.8645318197
 10
1232.0717598501
 20
-1364.0945510388
 10
1237.4828113658
 20
-1352.6745475046
 10
1243.2216958874
 20
-1341.612347917
 10
1249.28448027
 20
-1330.915533755
 10
1255.667009384
 20
-1320.5914360807
 10
1262.3649089628
 20
-1310.647130515
 10
1269.3735886007
 20
-1301.0894323881
 10
1276.6882448986
 20
-1291.924892069
 10
1284.3038647566
 20
-1283.1597904758
 10
1292.2152288091
 20
-1274.8001347713
 10
1300.4169150024
 20
-1266.851654246
 10
1308.9033023106
 20
-1259.3197963914
 10
1317.6685745876
 20
-1252.2097231666
 10
1326.7067245537
 20
-1245.5263074606
 10
1336.0115579124
 20
-1239.2741297528
 10
1345.5766975956
 20
-1233.4574749734
 10
1355.3955881344
 20
-1228.0803295671
 10
1365.4615001516
 20
-1223.1463787607
 10
1375.7675349741
 20
-1218.6590040377
 10
1386.3066293603
 20
-1214.6212808206
 10
1397.0715603414
 20
-1211.0359763631
 10
1408.0549501714
 20
-1207.9055478538
 10
1419.2492713835
 20
-1205.2321407321
 10
1430.6468519492
 20
-1203.0175872177
 10
1442.239880536
 20
-1201.263405055
 10
1454.0204118613
 20
-1199.9707964727
 10
1465.9803721373
 20
-1199.1406473602
 10
1478.1115646046
 20
-1198.7735266602
 10
1490.40567515
 20
-1198.8696859791
 10
1502.8542780041
 20
-1199.4290594138
 10
1515.4488415164
 20
-1200.4512635979
 10
1528.1807340022
 20
-1201.9355979637
 10
1541.0412296583
 20
-1203.8810452225
 10
1554.0215145434
 20
-1206.2862720619
 10
1567.1126926186
 20
-1209.1496300596
 10
1580.3057918444
 20
-1212.4691568132
 10
1593.5917703296
 20
-1216.2425772846
 10
1606.9615225281
 20
-1220.4673053602
 10
1620.4058854797
 20
-1225.1404456221
 10
1633.9156450895
 20
-1230.2587953336
 10
1647.4815424432
 20
-1235.8188466335
 10
1661.0942801523
 20
-1241.8167889402
 10
1674.7445287264
 20
-1248.2485115638
 10
1688.4229329669
 20
-1255.1096065228
 10
1702.1201183789
 20
-1262.3953715654
 10
1715.8266975956
 20
-1270.1008133923
 10
1729.5332768123
 20
-1278.2206510784
 10
1743.2304622242
 20
-1286.7493196927
 10
1756.9088664647
 20
-1295.6809741117
 10
1770.5591150388
 20
-1305.0094930256
 10
1784.1718527479
 20
-1314.7284831335
 10
1797.7377501016
 20
-1324.8312835251
 10
1811.2475097115
 20
-1335.3109702456
 10
1824.6918726631
 20
-1346.1603610412
 10
1838.0616248616
 20
-1357.3720202813
 10
1851.3476033468
 20
-1368.9382640549
 10
1864.5407025725
 20
-1380.8511654361
 10
1877.6318806478
 20
-1393.1025599174
 10
1890.6121655328
 20
-1405.6840510051
 10
1903.4726611889
 20
-1418.5870159735
 10
1916.2045536747
 20
-1431.802611775
 10
1928.799117187
 20
-1445.3217811004
 10
1941.2477200411
 20
-1459.1352585862
 10
1953.5418305865
 20
-1473.2335771652
 10
1965.6730230539
 20
-1487.6070745538
 10
1977.6329833299
 20
-1502.245899875
 10
1989.4135146552
 20
-1517.1400204092
 10
2001.006543242
 20
-1532.27922847
 10
2012.4041238077
 20
-1547.6531484005
 10
2023.5984450198
 20
-1563.251243684
 10
2034.5818348498
 20
-1579.062824165
 10
2045.3467658308
 20
-1595.0770533762
 10
2055.885860217
 20
-1611.2829559647
 10
2066.1918950395
 20
-1627.6694252143
 10
2076.2578070568
 20
-1644.2252306577
 10
2086.0766975956
 20
-1660.9390257728
 10
2095.6418372788
 20
-1677.7993557591
 10
2104.9466706374
 20
-1694.7946653888
 10
2113.9848206035
 20
-1711.9133069256
 10
2122.7500928805
 20
-1729.1435481076
 10
2131.2364801887
 20
-1746.4735801883
 10
2139.4381663821
 20
-1763.8915260292
 10
2147.3495304346
 20
-1781.3854482404
 10
2154.9651502925
 20
-1798.9433573614
 10
2162.2798065905
 20
-1816.5532200784
 10
2169.2884862283
 20
-1834.202967471
 10
2175.9863858071
 20
-1851.880503284
 10
2182.3689149212
 20
-1869.5737122174
 10
2188.4316993038
 20
-1887.2704682296
 10
2194.1705838253
 20
-1904.958642848
 10
2199.5816353411
 20
-1922.6261134812
 10
2204.6611453866
 20
-1940.2607717274
 10
2209.4056327194
 20
-1957.8505316727
 10
2213.8118457049
 20
-1975.3833381742
 10
2217.8767645448
 20
-1992.8471751222
 10
2221.5976033468
 20
-2010.2300736752
 10
2224.9718120338
 20
-2027.5201204627
 10
2227.9970780917
 20
-2044.7054657504
 10
2230.6713281543
 20
-2061.774331561
 10
2232.9927294242
 20
-2078.7150197466
 10
2234.9596909289
 20
-2095.5159200056
 10
2236.5708646112
 20
-2112.1655178402
 10
2237.8251462532
 20
-2128.6524024478
 10
2238.7216762329
 20
-2144.9652745411
 10
2239.2598401135
 20
-2161.0929540925
 10
2239.4392690642
 20
-2177.024387996
 10
2239.2598401135
 20
-2192.7486576427
 10
2238.7216762329
 20
-2208.2549864034
 10
2237.8251462532
 20
-2223.5327470151
 10
2236.5708646112
 20
-2238.5714688638
 10
2234.9596909289
 20
-2253.3608451608
 10
2232.9927294242
 20
-2267.8907400062
 10
2230.6713281543
 20
-2282.1511953358
 10
2227.9970780917
 20
-2296.1324377461
 10
2224.9718120338
 20
-2309.8248851917
 10
2221.5976033468
 20
-2323.2191535532
 10
2217.8767645448
 20
-2336.3060630681
 10
2213.8118457049
 20
-2349.0766446223
 10
2209.4056327194
 20
-2361.5221458971
 10
2204.6611453866
 20
-2373.6340373677
 10
2199.581635341
 20
-2385.4040181485
 10
2194.1705838253
 20
-2396.8240216827
 10
2188.4316993038
 20
-2407.8862212703
 10
2182.3689149212
 20
-2418.5830354324
 10
2175.9863858071
 20
-2428.9071331067
 10
2169.2884862283
 20
-2438.8514386724
 10
2162.2798065905
 20
-2448.4091367992
 10
2154.9651502925
 20
-2457.5736771183
 10
2147.3495304346
 20
-2466.3387787115
 10
2139.4381663821
 20
-2474.698434416
 10
2131.2364801887
 20
-2482.6469149413
 10
2122.7500928805
 20
-2490.1787727959
 10
2113.9848206035
 20
-2497.2888460208
 10
2104.9466706374
 20
-2503.9722617267
 10
2095.6418372788
 20
-2510.2244394345
 10
2086.0766975956
 20
-2516.0410942139
 10
2076.2578070568
 20
-2521.4182396202
 10
2066.1918950395
 20
-2526.3521904266
 10
2055.885860217
 20
-2530.8395651496
 10
2045.3467658308
 20
-2534.8772883668
 10
2034.5818348497
 20
-2538.4625928243
 10
2023.5984450198
 20
-2541.5930213335
 10
2012.4041238077
 20
-2544.2664284552
 10
2001.006543242
 20
-2546.4809819696
 10
1989.4135146552
 20
-2548.2351641324
 10
1977.6329833299
 20
-2549.5277727147
 10
1965.6730230539
 20
-2550.3579218272
 10
1953.5418305865
 20
-2550.7250425271
 10
1941.2477200411
 20
-2550.6288832083
 10
1928.799117187
 20
-2550.0695097735
 10
1916.2045536747
 20
-2549.0473055894
 10
1903.4726611889
 20
-2547.5629712236
 10
1890.6121655328
 20
-2545.6175239649
 10
1877.6318806477
 20
-2543.2122971254
 10
1864.5407025725
 20
-2540.3489391277
 10
1851.3476033468
 20
-2537.0294123742
 10
1838.0616248616
 20
-2533.2559919027
 10
1824.691872663
 20
-2529.0312638272
 10
1811.2475097114
 20
-2524.3581235652
 10
1797.7377501016
 20
-2519.2397738537
 10
1784.1718527479
 20
-2513.6797225538
 10
1770.5591150388
 20
-2507.6817802471
 10
1756.9088664647
 20
-2501.2500576236
 10
1743.2304622242
 20
-2494.3889626646
 10
1729.5332768123
 20
-2487.1031976219
 10
1715.8266975956
 20
-2479.3977557951
 10
1702.1201183789
 20
-2471.2779181089
 10
1688.4229329669
 20
-2462.7492494946
 10
1674.7445287264
 20
-2453.8175950756
 10
1661.0942801523
 20
-2444.4890761617
 10
1647.4815424432
 20
-2434.7700860538
 10
1633.9156450895
 20
-2424.6672856622
 10
1620.4058854797
 20
-2414.1875989418
 10
1606.9615225281
 20
-2403.3382081462
 10
1593.5917703295
 20
-2392.126548906
 10
1580.3057918444
 20
-2380.5603051324
 10
1567.1126926186
 20
-2368.6474037512
 10
1554.0215145434
 20
-2356.3960092699
 10
1541.0412296583
 20
-2343.8145181822
 10
1528.1807340022
 20
-2330.9115532138
 10
1515.4488415164
 20
-2317.6959574123
 10
1502.8542780041
 20
-2304.176788087
 10
1490.40567515
 20
-2290.3633106011
 10
1478.1115646046
 20
-2276.2649920222
 10
1465.9803721372
 20
-2261.8914946335
 10
1454.0204118612
 20
-2247.2526693123
 10
1442.239880536
 20
-2232.3585487782
 10
1430.6468519492
 20
-2217.2193407173
 10
1419.2492713835
 20
-2201.8454207868
 10
1408.0549501714
 20
-2186.2473255033
 10
1397.0715603414
 20
-2170.4357450223
 10
1386.3066293603
 20
-2154.4215158112
 10
1375.7675349741
 20
-2138.2156132227
 10
1365.4615001516
 20
-2121.829143973
 10
1355.3955881344
 20
-2105.2733385296
 10
1345.5766975956
 20
-2088.5595434146
 10
1336.0115579124
 20
-2071.6992134282
 10
1326.7067245537
 20
-2054.7039037985
 10
1317.6685745876
 20
-2037.5852622617
 10
1308.9033023106
 20
-2020.3550210797
 10
1300.4169150024
 20
-2003.024988999
 10
1292.2152288091
 20
-1985.6070431581
 10
1284.3038647565
 20
-1968.1131209469
 10
1276.6882448986
 20
-1950.5552118259
 10
1269.3735886007
 20
-1932.9453491089
 10
1262.3649089628
 20
-1915.2956017163
 10
1255.667009384
 20
-1897.6180659033
 10
1249.28448027
 20
-1879.9248569699
 10
1243.2216958874
 20
-1862.2281009577
 10
1237.4828113658
 20
-1844.5399263394
 10
1232.0717598501
 20
-1826.8724557061
 10
1226.9922498046
 20
-1809.2377974599
 10
1222.2477624718
 20
-1791.6480375147
 10
1217.8415494863
 20
-1774.1152310131
 10
1213.7766306464
 20
-1756.6513940651
 10
1210.0557918444
 20
-1739.2684955122
 10
1206.6815831574
 20
-1721.9784487246
 10
1203.6563170995
 20
-1704.7931034369
 10
1200.9820670369
 20
-1687.7242376263
 10
1198.660665767
 20
-1670.7835494407
 10
1196.6937042623
 20
-1653.9826491817
 10
1195.0825305799
 20
-1637.3330513471
 10
1193.8282489379
 20
-1620.8461667396
 10
1192.9317189582
 20
-1604.5332946462
 10
1192.3935550777
 20
-1588.4056150948
 10
1192.2141261269
 20
-1572.4741811913
  0
SPLINE
  5
110
330
1F
100
AcDbEntity
  8
0
  6
Continuous
 62
     7
370
    25
100
AcDbSpline
210
0.0
220
0.0
230
1.0
 70
     8
 71
     3
 72
    13
 73
     9
 74
     0
 42
0.00000001
 43
0.00000001
 40
0.0
 40
0.0
 40
0.0
 40
0.0
 40
0.1911212552542229
 40
0.3822377320716719
 40
0.5734707692413079
 40
0.7648286944264835
 40
0.9562018594133134
 40
1.0
 40
1.0
 40
1.0
 40
1.0
 10
1700.917529387958
 20
-1255.307900665907
 30
0.0
 10
1700.129732439549
 20
-1255.371468054094
 30
0.0
 10
1698.554158239325
 20
-1255.498601241149
 30
0.0
 10
1696.268548724858
 20
-1255.130174827385
 30
0.0
 10
1694.347771138552
 20
-1254.391641351408
 30
0.0
 10
1693.076879183221
 20
-1253.32753098907
 30
0.0
 10
1692.497229772406
 20
-1252.391385383261
 30
0.0
 10
1692.612028362953
 20
-1251.859659167245
 30
0.0
 10
1692.63340837271
 20
-1251.760630846141
 30
0.0
  0
SPLINE
  5
111
330
1F
100
AcDbEntity
  8
0
  6
Continuous
 62
     7
370
    25
100
AcDbSpline
210
0.0
220
0.0
230
1.0
 70
     8
 71
     3
 72
    12
 73
     8
 74
     0
 42
0.00000001
 43
0.00000001
 40
0.0
 40
0.0
 40
0.0
 40
0.0
 40
0.112182628923219
 40
0.3572071024219889
 40
0.6020932800140033
 40
0.846949428420398
 40
1.0
 40
1.0
 40
1.0
 40
1.0
 10
1706.464497845981
 20
-1251.330901114743
 30
0.0
 10
1706.486149905771
 20
-1251.530794889369
 30
0.0
 10
1706.555093463372
 20
-1252.167288049777
 30
0.0
 10
1705.824257321453
 20
-1253.227577120917
 30
0.0
 10
1704.389953046918
 20
-1254.315496725642
 30
0.0
 10
1702.625110491405
 20
-1255.01232324995
 30
0.0
 10
1701.391878793804
 20
-1255.225792137441
 30
0.0
 10
1700.917529387958
 20
-1255.307900665907
 30
0.0
  0
SPLINE
  5
112
330
1F
100
AcDbEntity
  8
0
  6
Continuous
 62
     7
370
    25
100
AcDbSpline
210
0.0
220
0.0
230
1.0
 70
     8
 71
     3
 72
    12
 73
     8
 74
     0
 42
0.00000001
 43
0.00000001
 40
0.0
 40
0.0
 40
0.0
 40
0.0
 40
0.2120501105858232
 40
0.4240932664994188
 40
0.6362863047747291
 40
0.8485208424670262
 40
1.0
 40
1.0
 40
1.0
 40
1.0
 10
1749.204763253399
 20
-1284.377686662827
 30
0.0
 10
1748.416080804152
 20
-1284.318642231504
 30
0.0
 10
1746.838741772316
 20
-1284.200555305355
 30
0.0
 10
1744.712724706504
 20
-1283.436563551439
 30
0.0
 10
1743.105687034785
 20
-1282.337083394566
 30
0.0
 10
1742.165517552986
 20
-1281.109845415167
 30
0.0
 10
1742.148863155301
 20
-1280.290711727409
 30
0.0
 10
1742.141926946509
 20
-1279.949559654894
 30
0.0
  0
SPLINE
  5
113
330
1F
100
AcDbEntity
  8
0
  6
Continuous
 62
     7
370
    25
100
AcDbSpline
210
0.0
220
0.0
230
1.0
 70
     8
 71
     3
 72
    12
 73
     8
 74
     0
 42
0.00000001
 43
0.00000001
 40
0.0
 40
0.0
 40
0.0
 40
0.0
 40
0.2124037630326696
 40
0.4300266008581554
 40
0.6473255206496342
 40
0.864456344615749
 40
1.0
 40
1.0
 40
1.0
 40
1.0
 10
1756.050971897419
 20
-1280.282574839469
 30
0.0
 10
1755.981367081102
 20
-1280.751236492011
 30
0.0
 10
1755.840447155121
 20
-1281.700075507467
 30
0.0
 10
1754.657377709732
 20
-1282.948148735916
 30
0.0
 10
1752.895714820477
 20
-1283.876674225021
 30
0.0
 10
1750.962064815692
 20
-1284.337260581267
 30
0.0
 10
1749.692641643036
 20
-1284.366463198401
 30
0.0
 10
1749.204763253399
 20
-1284.377686662827
 30
0.0
  0
LWPOLYLINE
  5
114
330
1F
100
AcDbEntity
  8
0
  6
Continuous
 62
     7
370
    25
100
AcDbPolyline
 90
      241
 70
   128
 43
0.0
 10
1291.5626288836
 20
-1629.8268510469
 10
1291.7080135838
 20
-1617.0860518734
 10
1292.1440680447
 20
-1604.521842209
 10
1292.8704934165
 20
-1592.1428329355
 10
1293.8867918435
 20
-1579.9575080074
 10
1295.1922668056
 20
-1567.9742186379
 10
1296.7860235953
 20
-1556.2011775748
 10
1298.6669699315
 20
-1544.6464534724
 10
1300.8338167074
 20
-1533.3179653614
 10
1303.2850788746
 20
-1522.2234772218
 10
1306.0190764602
 20
-1511.3705926615
 10
1309.0339357191
 20
-1500.7667497055
 10
1312.3275904172
 20
-1490.4192156981
 10
1315.8977832481
 20
-1480.3350823221
 10
1319.7420673801
 20
-1470.521260739
 10
1323.8578081327
 20
-1460.9844768517
 10
1328.2421847828
 20
-1451.7312666957
 10
1332.8921924978
 20
-1442.767971959
 10
1337.8046443945
 20
-1434.1007356359
 10
1342.9761737239
 20
-1425.7354978174
 10
1348.4032361781
 20
-1417.6779916197
 10
1354.0821123195
 20
-1409.9337392549
 10
1360.0089101301
 20
-1402.5080482469
 10
1366.1795676787
 20
-1395.4060077932
 10
1372.589855905
 20
-1388.6324852778
 10
1379.2353815174
 20
-1382.1921229345
 10
1386.1115900048
 20
-1376.0893346661
 10
1393.2137687573
 20
-1370.3283030187
 10
1400.5370502963
 20
-1364.9129763157
 10
1408.0764156105
 20
-1359.8470659515
 10
1415.8266975956
 20
-1355.134043848
 10
1423.7825845953
 20
-1350.7771400752
 10
1431.9386240421
 20
-1346.7793406372
 10
1440.289226194
 20
-1343.1433854261
 10
1448.8286679654
 20
-1339.871766344
 10
1457.5510968494
 20
-1336.9667255952
 10
1466.4505349291
 20
-1334.4302541495
 10
1475.520882974
 20
-1332.2640903777
 10
1484.7559246208
 20
-1330.4697188603
 10
1494.149330633
 20
-1329.0483693699
 10
1503.6946632396
 20
-1328.0010160284
 10
1513.3853805463
 20
-1327.3283766394
 10
1523.2148410195
 20
-1327.0309121966
 10
1533.1763080381
 20
-1327.108826567
 10
1543.26295451
 20
-1327.5620663521
 10
1553.4678675517
 20
-1328.3903209239
 10
1563.7840532255
 20
-1329.5930226382
 10
1574.2044413331
 20
-1331.1693472234
 10
1584.7218902609
 20
-1333.1182143451
 10
1595.3291918749
 20
-1335.4382883473
 10
1606.0190764602
 20
-1338.1279791672
 10
1616.7842177041
 20
-1341.185443425
 10
1627.6172377165
 20
-1344.6085856874
 10
1638.5107120864
 20
-1348.3950599037
 10
1649.4571749708
 20
-1352.5422710136
 10
1660.4491242108
 20
-1357.0473767259
 10
1671.4790264734
 20
-1361.9072894659
 10
1682.5393224146
 20
-1367.1186784925
 10
1693.62243186
 20
-1372.6779721797
 10
1704.720759
 20
-1378.5813604654
 10
1715.8266975956
 20
-1384.8247974622
 10
1726.9326361911
 20
-1391.4040042302
 10
1738.0309633311
 20
-1398.3144717097
 10
1749.1140727765
 20
-1405.5514638116
 10
1760.1743687177
 20
-1413.1100206628
 10
1771.2042709803
 20
-1420.9849620061
 10
1782.1962202203
 20
-1429.1708907501
 10
1793.1426831047
 20
-1437.6621966681
 10
1804.0361574747
 20
-1446.4530602432
 10
1814.869177487
 20
-1455.5374566566
 10
1825.6343187309
 20
-1464.9091599167
 10
1836.3242033163
 20
-1474.5617471264
 10
1846.9315049302
 20
-1484.4886028844
 10
1857.448953858
 20
-1494.6829238197
 10
1867.8693419656
 20
-1505.1377232539
 10
1878.1855276394
 20
-1515.8458359897
 10
1888.3904406811
 20
-1526.7999232216
 10
1898.4770871531
 20
-1537.9924775654
 10
1908.4385541716
 20
-1549.4158282032
 10
1918.2680146449
 20
-1561.0621461414
 10
1927.9587319515
 20
-1572.9234495752
 10
1937.5040645581
 20
-1584.9916093598
 10
1946.8974705704
 20
-1597.2583545812
 10
1956.1325122171
 20
-1609.7152782252
 10
1965.202860262
 20
-1622.3538429383
 10
1974.1022983417
 20
-1635.1653868797
 10
1982.8247272258
 20
-1648.1411296571
 10
1991.3641689972
 20
-1661.2721783446
 10
1999.7147711491
 20
-1674.5495335773
 10
2007.8708105959
 20
-1687.9640957192
 10
2015.8266975956
 20
-1701.5066710993
 10
2023.5769795806
 20
-1715.1679783131
 10
2031.1163448948
 20
-1728.938654583
 10
2038.4396264339
 20
-1742.8092621753
 10
2045.5418051864
 20
-1756.7702948683
 10
2052.4180136737
 20
-1770.8121844678
 10
2059.0635392862
 20
-1784.9253073639
 10
2065.4738275124
 20
-1799.0999911272
 10
2071.644485061
 20
-1813.3265211374
 10
2077.5712828716
 20
-1827.5951472416
 10
2083.2501590131
 20
-1841.8960904362
 10
2088.6772214672
 20
-1856.219549569
 10
2093.8487507966
 20
-1870.5557080565
 10
2098.7612026934
 20
-1884.894740612
 10
2103.4112104083
 20
-1899.2268199787
 10
2107.7955870585
 20
-1913.5421236653
 10
2111.9113278111
 20
-1927.8308406777
 10
2115.755611943
 20
-1942.0831782431
 10
2119.3258047739
 20
-1956.2893685212
 10
2122.619459472
 20
-1970.4396752988
 10
2125.6343187309
 20
-1984.5244006624
 10
2128.3683163166
 20
-1998.5338916449
 10
2130.8195784837
 20
-2012.4585468408
 10
2132.9864252596
 20
-2026.2888229872
 10
2134.8673715958
 20
-2040.0152415035
 10
2136.4611283856
 20
-2053.6283949882
 10
2137.7666033476
 20
-2067.1189536658
 10
2138.7829017746
 20
-2080.4776717813
 10
2139.5093271464
 20
-2093.6953939366
 10
2139.9453816074
 20
-2106.7630613652
 10
2140.0907663075
 20
-2119.6717181405
 10
2139.9453816074
 20
-2132.412517314
 10
2139.5093271464
 20
-2144.9767269783
 10
2138.7829017746
 20
-2157.3557362518
 10
2137.7666033476
 20
-2169.5410611799
 10
2136.4611283856
 20
-2181.5243505495
 10
2134.8673715958
 20
-2193.2973916126
 10
2132.9864252596
 20
-2204.8521157149
 10
2130.8195784837
 20
-2216.1806038259
 10
2128.3683163166
 20
-2227.2750919655
 10
2125.6343187309
 20
-2238.1279765258
 10
2122.619459472
 20
-2248.7318194818
 10
2119.3258047739
 20
-2259.0793534893
 10
2115.755611943
 20
-2269.1634868652
 10
2111.9113278111
 20
-2278.9773084484
 10
2107.7955870585
 20
-2288.5140923356
 10
2103.4112104083
 20
-2297.7673024916
 10
2098.7612026934
 20
-2306.7305972284
 10
2093.8487507966
 20
-2315.3978335514
 10
2088.6772214672
 20
-2323.7630713699
 10
2083.250159013
 20
-2331.8205775676
 10
2077.5712828716
 20
-2339.5648299324
 10
2071.644485061
 20
-2346.9905209405
 10
2065.4738275124
 20
-2354.0925613941
 10
2059.0635392862
 20
-2360.8660839095
 10
2052.4180136737
 20
-2367.3064462528
 10
2045.5418051863
 20
-2373.4092345212
 10
2038.4396264339
 20
-2379.1702661686
 10
2031.1163448948
 20
-2384.5855928716
 10
2023.5769795806
 20
-2389.6515032358
 10
2015.8266975956
 20
-2394.3645253393
 10
2007.8708105959
 20
-2398.7214291122
 10
1999.7147711491
 20
-2402.7192285501
 10
1991.3641689972
 20
-2406.3551837612
 10
1982.8247272258
 20
-2409.6268028433
 10
1974.1022983417
 20
-2412.5318435921
 10
1965.202860262
 20
-2415.0683150378
 10
1956.1325122171
 20
-2417.2344788096
 10
1946.8974705704
 20
-2419.028850327
 10
1937.5040645581
 20
-2420.4501998175
 10
1927.9587319515
 20
-2421.497553159
 10
1918.2680146449
 20
-2422.1701925479
 10
1908.4385541716
 20
-2422.4676569908
 10
1898.4770871531
 20
-2422.3897426204
 10
1888.3904406811
 20
-2421.9365028353
 10
1878.1855276394
 20
-2421.1082482634
 10
1867.8693419656
 20
-2419.9055465491
 10
1857.448953858
 20
-2418.329221964
 10
1846.9315049302
 20
-2416.3803548422
 10
1836.3242033163
 20
-2414.06028084
 10
1825.6343187309
 20
-2411.3705900201
 10
1814.869177487
 20
-2408.3131257624
 10
1804.0361574747
 20
-2404.8899834999
 10
1793.1426831047
 20
-2401.1035092836
 10
1782.1962202203
 20
-2396.9562981737
 10
1771.2042709803
 20
-2392.4511924615
 10
1760.1743687177
 20
-2387.5912797214
 10
1749.1140727765
 20
-2382.3798906949
 10
1738.0309633311
 20
-2376.8205970076
 10
1726.9326361911
 20
-2370.9172087219
 10
1715.8266975956
 20
-2364.6737717251
 10
1704.720759
 20
-2358.0945649571
 10
1693.62243186
 20
-2351.1840974776
 10
1682.5393224146
 20
-2343.9471053758
 10
1671.4790264734
 20
-2336.3885485245
 10
1660.4491242108
 20
-2328.5136071812
 10
1649.4571749708
 20
-2320.3276784372
 10
1638.5107120864
 20
-2311.8363725192
 10
1627.6172377164
 20
-2303.0455089441
 10
1616.7842177041
 20
-2293.9611125307
 10
1606.0190764602
 20
-2284.5894092706
 10
1595.3291918749
 20
-2274.936822061
 10
1584.7218902609
 20
-2265.009966303
 10
1574.2044413331
 20
-2254.8156453677
 10
1563.7840532255
 20
-2244.3608459334
 10
1553.4678675517
 20
-2233.6527331976
 10
1543.26295451
 20
-2222.6986459657
 10
1533.176308038
 20
-2211.506091622
 10
1523.2148410195
 20
-2200.0827409841
 10
1513.3853805463
 20
-2188.436423046
 10
1503.6946632396
 20
-2176.5751196122
 10
1494.149330633
 20
-2164.5069598276
 10
1484.7559246208
 20
-2152.2402146061
 10
1475.520882974
 20
-2139.7832909622
 10
1466.4505349291
 20
-2127.144726249
 10
1457.5510968494
 20
-2114.3331823076
 10
1448.8286679654
 20
-2101.3574395302
 10
1440.289226194
 20
-2088.2263908427
 10
1431.9386240421
 20
-2074.94903561
 10
1423.7825845953
 20
-2061.5344734682
 10
1415.8266975956
 20
-2047.991898088
 10
1408.0764156105
 20
-2034.3305908742
 10
1400.5370502963
 20
-2020.5599146043
 10
1393.2137687573
 20
-2006.6893070121
 10
1386.1115900048
 20
-1992.728274319
 10
1379.2353815174
 20
-1978.6863847195
 10
1372.589855905
 20
-1964.5732618234
 10
1366.1795676787
 20
-1950.3985780601
 10
1360.0089101301
 20
-1936.1720480499
 10
1354.0821123195
 20
-1921.9034219457
 10
1348.4032361781
 20
-1907.6024787511
 10
1342.9761737239
 20
-1893.2790196184
 10
1337.8046443945
 20
-1878.9428611308
 10
1332.8921924978
 20
-1864.6038285753
 10
1328.2421847828
 20
-1850.2717492087
 10
1323.8578081327
 20
-1835.9564455221
 10
1319.7420673801
 20
-1821.6677285096
 10
1315.8977832481
 20
-1807.4153909442
 10
1312.3275904172
 20
-1793.2092006661
 10
1309.0339357191
 20
-1779.0588938886
 10
1306.0190764602
 20
-1764.9741685249
 10
1303.2850788746
 20
-1750.9646775425
 10
1300.8338167074
 20
-1737.0400223465
 10
1298.6669699315
 20
-1723.2097462001
 10
1296.7860235953
 20
-1709.4833276838
 10
1295.1922668056
 20
-1695.8701741991
 10
1293.8867918435
 20
-1682.3796155215
 10
1292.8704934165
 20
-1669.020897406
 10
1292.1440680447
 20
-1655.8031752507
 10
1291.7080135838
 20
-1642.7355078221
 10
1291.5626288836
 20
-1629.8268510469
  0
LWPOLYLINE
  5
115
330
1F
100
AcDbEntity
  8
0
  6
Continuous
 62
     7
370
    25
100
AcDbPolyline
 90
       55
 70
   128
 43
0.0
 10
2138.4835863511
 20
-2076.14028452
 10
2131.0984342447
 20
-2071.0559121822
 10
2120.0685319821
 20
-2063.1809708388
 10
2109.0765827421
 20
-2054.9950420948
 10
2098.1301198577
 20
-2046.5037361768
 10
2087.2366454877
 20
-2037.7128726017
 10
2076.4036254754
 20
-2028.6284761884
 10
2065.6384842315
 20
-2019.2567729282
 10
2054.9485996461
 20
-2009.6041857186
 10
2044.3412980322
 20
-1999.6773299606
 10
2033.8238491044
 20
-1989.4830090253
 10
2023.4034609968
 20
-1979.0282095911
 10
2013.087275323
 20
-1968.3200968552
 10
2002.8823622813
 20
-1957.3660096233
 10
1992.7957158093
 20
-1946.1734552796
 10
1982.8342487908
 20
-1934.7501046417
 10
1973.0047883175
 20
-1923.1037867036
 10
1963.3140710109
 20
-1911.2424832698
 10
1953.7687384043
 20
-1899.1743234852
 10
1944.375332392
 20
-1886.9075782637
 10
1935.1402907453
 20
-1874.4506546198
 10
1926.0699427004
 20
-1861.8120899067
 10
1917.1705046207
 20
-1849.0005459652
 10
1908.4480757366
 20
-1836.0248031878
 10
1899.9086339652
 20
-1822.8937545003
 10
1891.5580318133
 20
-1809.6163992676
 10
1883.4019923665
 20
-1796.2018371258
 10
1875.4461053668
 20
-1782.6592617456
 10
1867.6958233818
 20
-1768.9979545318
 10
1860.1564580676
 20
-1755.227278262
 10
1852.8331765285
 20
-1741.3566706697
 10
1845.7309977761
 20
-1727.3956379766
 10
1838.8547892887
 20
-1713.3537483772
 10
1832.2092636762
 20
-1699.2406254811
 10
1825.79897545
 20
-1685.0659417178
 10
1819.6283179014
 20
-1670.8394117075
 10
1813.7015200908
 20
-1656.5707856033
 10
1808.0226439494
 20
-1642.2698424088
 10
1802.5955814952
 20
-1627.946383276
 10
1797.4240521658
 20
-1613.6102247884
 10
1792.511600269
 20
-1599.271192233
 10
1787.8615925541
 20
-1584.9391128663
 10
1783.4772159039
 20
-1570.6238091797
 10
1779.3614751513
 20
-1556.3350921672
 10
1775.5171910194
 20
-1542.0827546019
 10
1771.9469981885
 20
-1527.8765643238
 10
1768.6533434904
 20
-1513.7262575462
 10
1765.6384842315
 20
-1499.6415321825
 10
1762.9044866458
 20
-1485.6320412001
 10
1760.4532244787
 20
-1471.7073860041
 10
1758.2863777028
 20
-1457.8771098577
 10
1756.4054313666
 20
-1444.1506913414
 10
1754.8116745768
 20
-1430.5375378568
 10
1753.5061996148
 20
-1417.0469791791
 10
1752.7892166113
 20
-1408.025648325
  0
LWPOLYLINE
  5
116
330
1F
100
AcDbEntity
  8
0
  6
Continuous
 62
     7
370
    25
100
AcDbPolyline
 90
       29
 70
   128
 43
0.0
 10
1806.905647644
 20
-967.1466932783
 10
1815.0149959056
 20
-962.7476932247
 10
1825.0809079229
 20
-957.8137424183
 10
1835.3869427454
 20
-953.3263676953
 10
1845.9260371316
 20
-949.2886444782
 10
1856.6909681126
 20
-945.7033400207
 10
1867.6743579426
 20
-942.5729115114
 10
1878.8686791547
 20
-939.8995043898
 10
1890.2662597204
 20
-937.6849508753
 10
1901.8592883072
 20
-935.9307687126
 10
1913.6398196325
 20
-934.6381601303
 10
1925.5997799085
 20
-933.8080110178
 10
1937.7309723759
 20
-933.4408903179
 10
1950.0250829213
 20
-933.5370496367
 10
1962.4736857754
 20
-934.0964230714
 10
1975.0682492877
 20
-935.1186272555
 10
1987.8001417735
 20
-936.6029616213
 10
2000.6606374296
 20
-938.5484088801
 10
2013.6409223147
 20
-940.9536357195
 10
2026.7321003899
 20
-943.8169937173
 10
2039.9251996156
 20
-947.1365204708
 10
2053.2111781008
 20
-950.9099409423
 10
2066.5809302993
 20
-955.1346690178
 10
2080.0252932509
 20
-959.8078092797
 10
2093.5350528608
 20
-964.9261589913
 10
2107.1009502145
 20
-970.4862102911
 10
2120.7136879236
 20
-976.4841525978
 10
2134.3639364977
 20
-982.9158752214
 10
2137.6815912091
 20
-984.5418460474
  0
LWPOLYLINE
  5
117
330
1F
100
AcDbEntity
  8
0
  6
Continuous
 62
     7
370
    25
100
AcDbPolyline
 90
        4
 70
   128
 43
0.0
 10
2149.2120866511
 20
-990.3829736326
 10
2161.7395261501
 20
-997.062735223
 10
2175.4461053668
 20
-1004.7681770499
 10
2188.6265286293
 20
-1012.5686667579
  0
LWPOLYLINE
  5
118
330
1F
100
AcDbEntity
  8
0
  6
Continuous
 62
     7
370
    25
100
AcDbPolyline
 90
       90
 70
   128
 43
0.0
 10
2198.7095613341
 20
-1018.7949412914
 10
2202.8498699955
 20
-1021.4166833504
 10
2216.528274236
 20
-1030.3483377694
 10
2230.1785228101
 20
-1039.6768566833
 10
2243.7912605192
 20
-1049.3958467912
 10
2257.3571578729
 20
-1059.4986471827
 10
2270.8669174827
 20
-1069.9783339032
 10
2284.3112804343
 20
-1080.8277246988
 10
2297.6810326329
 20
-1092.039383939
 10
2310.967011118
 20
-1103.6056277125
 10
2324.1601103438
 20
-1115.5185290937
 10
2337.251288419
 20
-1127.7699235751
 10
2350.2315733041
 20
-1140.3514146627
 10
2363.0920689602
 20
-1153.2543796311
 10
2375.823961446
 20
-1166.4699754326
 10
2388.4185249583
 20
-1179.989144758
 10
2400.8671278124
 20
-1193.8026222439
 10
2413.1612383578
 20
-1207.9009408228
 10
2425.2924308252
 20
-1222.2744382114
 10
2437.2523911011
 20
-1236.9132635326
 10
2449.0329224264
 20
-1251.8073840668
 10
2460.6259510132
 20
-1266.9465921276
 10
2472.0235315789
 20
-1282.3205120581
 10
2483.217852791
 20
-1297.9186073416
 10
2494.201242621
 20
-1313.7301878226
 10
2504.9661736021
 20
-1329.7444170338
 10
2515.5052679883
 20
-1345.9503196223
 10
2525.8113028108
 20
-1362.336788872
 10
2535.877214828
 20
-1378.8925943153
 10
2545.6961053668
 20
-1395.6063894304
 10
2555.26124505
 20
-1412.4667194167
 10
2564.5660784087
 20
-1429.4620290464
 10
2573.6042283748
 20
-1446.5806705832
 10
2582.3695006518
 20
-1463.8109117653
 10
2590.85588796
 20
-1481.1409438459
 10
2599.0575741533
 20
-1498.5588896869
 10
2606.9689382059
 20
-1516.0528118981
 10
2614.5845580638
 20
-1533.6107210191
 10
2621.8992143617
 20
-1551.220583736
 10
2628.9078939996
 20
-1568.8703311286
 10
2635.6057935784
 20
-1586.5478669416
 10
2641.9883226924
 20
-1604.241075875
 10
2648.051107075
 20
-1621.9378318872
 10
2653.7899915966
 20
-1639.6260065056
 10
2659.2010431123
 20
-1657.2934771388
 10
2664.2805531578
 20
-1674.928135385
 10
2669.0250404906
 20
-1692.5178953303
 10
2673.4312534761
 20
-1710.0507018318
 10
2677.496172316
 20
-1727.5145387798
 10
2681.217011118
 20
-1744.8974373328
 10
2684.591219805
 20
-1762.1874841203
 10
2687.6164858629
 20
-1779.372829408
 10
2690.2907359256
 20
-1796.4416952187
 10
2692.6121371954
 20
-1813.3823834042
 10
2694.5790987001
 20
-1830.1832836632
 10
2696.1902723825
 20
-1846.8328814978
 10
2697.4445540245
 20
-1863.3197661054
 10
2698.3410840042
 20
-1879.6326381987
 10
2698.8792478847
 20
-1895.7603177501
 10
2699.0586768355
 20
-1911.6917516537
 10
2698.8792478847
 20
-1927.4160213003
 10
2698.3410840042
 20
-1942.922350061
 10
2697.4445540245
 20
-1958.2001106728
 10
2696.1902723825
 20
-1973.2388325215
 10
2694.5790987001
 20
-1988.0282088184
 10
2692.6121371954
 20
-2002.5581036638
 10
2690.2907359255
 20
-2016.8185589935
 10
2687.6164858629
 20
-2030.7998014037
 10
2684.591219805
 20
-2044.4922488494
 10
2681.217011118
 20
-2057.8865172109
 10
2677.496172316
 20
-2070.9734267258
 10
2673.4312534761
 20
-2083.74400828
 10
2669.0250404906
 20
-2096.1895095548
 10
2664.2805531578
 20
-2108.3014010253
 10
2659.2010431123
 20
-2120.0713818061
 10
2653.7899915966
 20
-2131.4913853403
 10
2648.051107075
 20
-2142.553584928
 10
2641.9883226924
 20
-2153.25039909
 10
2635.6057935784
 20
-2163.5744967643
 10
2628.9078939996
 20
-2173.51880233
 10
2621.8992143617
 20
-2183.0765004569
 10
2614.5845580638
 20
-2192.241040776
 10
2606.9689382058
 20
-2201.0061423691
 10
2599.0575741533
 20
-2209.3657980736
 10
2590.85588796
 20
-2217.3142785989
 10
2582.3695006518
 20
-2224.8461364536
 10
2573.6042283748
 20
-2231.9562096784
 10
2564.5660784087
 20
-2238.6396253843
 10
2555.26124505
 20
-2244.8918030922
 10
2547.338179638
 20
-2249.7517531065
  0
SPLINE
  5
119
330
1F
100
AcDbEntity
  8
0
  6
Continuous
 62
     7
370
    25
100
AcDbSpline
210
0.0
220
0.0
230
1.0
 70
     8
 71
     3
 72
    12
 73
     8
 74
     0
 42
0.00000001
 43
0.00000001
 40
0.0
 40
0.0
 40
0.0
 40
0.0
 40
0.2114244312866699
 40
0.4228443083822906
 40
0.6343469854940081
 40
0.8457688016606351
 40
1.0
 40
1.0
 40
1.0
 40
1.0
 10
2191.894502620398
 20
-1028.794004014739
 30
0.0
 10
2191.10513969843
 20
-1028.732498859027
 30
0.0
 10
2189.526430857779
 20
-1028.609489872456
 30
0.0
 10
2187.39303889359
 20
-1027.845194771699
 30
0.0
 10
2185.775210470279
 20
-1026.751237352614
 30
0.0
 10
2184.820901134359
 20
-1025.526576887663
 30
0.0
 10
2184.797657082483
 20
-1024.709200928638
 30
0.0
 10
2184.78785282043
 20
-1024.364434528108
 30
0.0
  0
SPLINE
  5
11A
330
1F
100
AcDbEntity
  8
0
  6
Continuous
 62
     7
370
    25
100
AcDbSpline
210
0.0
220
0.0
230
1.0
 70
     8
 71
     3
 72
    12
 73
     8
 74
     0
 42
0.00000001
 43
0.00000001
 40
0.0
 40
0.0
 40
0.0
 40
0.0
 40
0.2096137605805473
 40
0.4278567516646243
 40
0.6458507430210163
 40
0.8638138473662814
 40
1.0
 40
1.0
 40
1.0
 40
1.0
 10
2198.694045710336
 20
-1024.795900425457
 30
0.0
 10
2198.629248180981
 20
-1025.251230745428
 30
0.0
 10
2198.496985583578
 20
-1026.180636100772
 30
0.0
 10
2197.330670330463
 20
-1027.40228804702
 30
0.0
 10
2195.579674659556
 20
-1028.313032555394
 30
0.0
 10
2193.651345114937
 20
-1028.760859668136
 30
0.0
 10
2192.38244947356
 20
-1028.784798477148
 30
0.0
 10
2191.894502620398
 20
-1028.794004014739
 30
0.0
  0
SPLINE
  5
11B
330
1F
100
AcDbEntity
  8
0
  6
Continuous
 62
     7
370
    25
100
AcDbSpline
210
0.0
220
0.0
230
1.0
 70
     8
 71
     3
 72
    13
 73
     9
 74
     0
 42
0.00000001
 43
0.00000001
 40
0.0
 40
0.0
 40
0.0
 40
0.0
 40
0.1908796486067879
 40
0.3817545038892539
 40
0.5727546267195458
 40
0.7639507550707807
 40
0.9552728589724299
 40
0.9999999999999999
 40
0.9999999999999999
 40
0.9999999999999999
 40
0.9999999999999999
 10
2143.57246017545
 20
-999.7321684293016
 30
0.0
 10
2142.785153529725
 20
-999.7899616700402
 30
0.0
 10
2141.210560008931
 20
-999.9055467002273
 30
0.0
 10
2138.925271284761
 20
-999.5280460075194
 30
0.0
 10
2137.003763072032
 20
-998.7878839700033
 30
0.0
 10
2135.72994657952
 20
-997.7305120131233
 30
0.0
 10
2135.147521193654
 20
-996.8013848991868
 30
0.0
 10
2135.261706956059
 20
-996.2751963542663
 30
0.0
 10
2135.283343130748
 20
-996.1754929671077
 30
0.0
  0
SPLINE
  5
11C
330
1F
100
AcDbEntity
  8
0
  6
Continuous
 62
     7
370
    25
100
AcDbSpline
210
0.0
220
0.0
230
1.0
 70
     8
 71
     3
 72
    12
 73
     8
 74
     0
 42
0.00000001
 43
0.00000001
 40
0.0
 40
0.0
 40
0.0
 40
0.0
 40
0.111219195476888
 40
0.3565890051860665
 40
0.6017711459662688
 40
0.8468243719987388
 40
1.0
 40
1.0
 40
1.0
 40
1.0
 10
2149.113420088081
 20
-995.8443200602968
 30
0.0
 10
2149.135311831624
 20
-996.0399066104308
 30
0.0
 10
2149.205500750168
 20
-996.666992726645
 30
0.0
 10
2148.477298384046
 20
-997.7079359503424
 30
0.0
 10
2147.04481825345
 20
-998.7736774164143
 30
0.0
 10
2145.280322426072
 20
-999.4509688134553
 30
0.0
 10
2144.046890255912
 20
-999.6540534898074
 30
0.0
 10
2143.57246017545
 20
-999.7321684293016
 30
0.0
  0
LWPOLYLINE
  5
11D
330
1F
100
AcDbEntity
  8
0
  6
Continuous
 62
     7
370
    25
100
AcDbPolyline
 90
       29
 70
   128
 43
0.0
 10
1754.0104637796
 20
-1268.8749405739
 10
1754.9877857059
 20
-1269.5824199039
 10
1755.6678996235
 20
-1270.3977066571
 10
1756.0167017806
 20
-1271.2799189516
 10
1756.0167017806
 20
-1272.184818979
 10
1755.6678996235
 20
-1273.0670312735
 10
1754.9877857059
 20
-1273.8823180268
 10
1754.0104637796
 20
-1274.5897973567
 10
1752.7849408469
 20
-1275.1539932955
 10
1751.372669745
 20
-1275.5466147029
 10
1749.8444676441
 20
-1275.7479739022
 10
1748.2769649786
 20
-1275.7479739022
 10
1746.7487628777
 20
-1275.5466147029
 10
1745.3364917757
 20
-1275.1539932955
 10
1744.110968843
 20
-1274.5897973567
 10
1743.1336469167
 20
-1273.8823180268
 10
1742.4535329992
 20
-1273.0670312735
 10
1742.1047308421
 20
-1272.184818979
 10
1742.1047308421
 20
-1271.2799189516
 10
1742.4535329992
 20
-1270.3977066571
 10
1743.1336469167
 20
-1269.5824199039
 10
1744.110968843
 20
-1268.8749405739
 10
1745.3364917757
 20
-1268.3107446351
 10
1746.7487628777
 20
-1267.9181232277
 10
1748.2769649786
 20
-1267.7167640285
 10
1749.8444676441
 20
-1267.7167640285
 10
1751.372669745
 20
-1267.9181232277
 10
1752.7849408469
 20
-1268.3107446351
 10
1754.0104637796
 20
-1268.8749405739
  0
LWPOLYLINE
  5
11E
330
1F
100
AcDbEntity
  8
0
  6
Continuous
 62
     7
370
    25
100
AcDbPolyline
 90
       24
 70
   128
 43
0.0
 10
1752.5962502173
 20
-1269.6913486858
 10
1753.4190186615
 20
-1270.3176959356
 10
1753.9185517583
 20
-1271.0489630123
 10
1754.0578014232
 20
-1271.8309151823
 10
1753.8264401454
 20
-1272.6055586301
 10
1753.2416269326
 20
-1273.315441595
 10
1752.3467347054
 20
-1273.9079153051
 10
1751.2081335265
 20
-1274.3390386956
 10
1749.9102682365
 20
-1274.576837317
 10
1748.5493955666
 20
-1274.6036747333
 10
1747.2264452173
 20
-1274.4175605361
 10
1746.0395343637
 20
-1274.0322979641
 10
1745.0766907543
 20
-1273.4764601796
 10
1744.4093240947
 20
-1272.7912711286
 10
1744.0869299171
 20
-1272.0275481482
 10
1744.1334187228
 20
-1271.2419330781
 10
1744.5453426497
 20
-1270.4926913943
 10
1745.2921511847
 20
-1269.8353909247
 10
1746.3184569551
 20
-1269.3187806383
 10
1747.5481435569
 20
-1268.9811751567
 10
1748.8900107604
 20
-1268.847613134
 10
1750.2445384137
 20
-1268.9280002544
 10
1751.5112673972
 20
-1269.216374573
 10
1752.5962502173
 20
-1269.6913486858
  0
LWPOLYLINE
  5
11F
330
1F
100
AcDbEntity
  8
0
  6
Continuous
 62
     7
370
    25
100
AcDbPolyline
 90
       29
 70
   128
 43
0.0
 10
1694.61349416
 20
-1246.0155134429
 10
1693.6361722337
 20
-1245.308034113
 10
1692.9560583161
 20
-1244.4927473597
 10
1692.607256159
 20
-1243.6105350652
 10
1692.607256159
 20
-1242.7056350378
 10
1692.9560583161
 20
-1241.8234227433
 10
1693.6361722337
 20
-1241.0081359901
 10
1694.61349416
 20
-1240.3006566601
 10
1695.8390170927
 20
-1239.7364607213
 10
1697.2512881946
 20
-1239.3438393139
 10
1698.7794902956
 20
-1239.1424801147
 10
1700.346992961
 20
-1239.1424801147
 10
1701.875195062
 20
-1239.3438393139
 10
1703.2874661639
 20
-1239.7364607213
 10
1704.5129890966
 20
-1240.3006566601
 10
1705.4903110229
 20
-1241.0081359901
 10
1706.1704249404
 20
-1241.8234227433
 10
1706.5192270975
 20
-1242.7056350378
 10
1706.5192270975
 20
-1243.6105350652
 10
1706.1704249404
 20
-1244.4927473597
 10
1705.4903110229
 20
-1245.308034113
 10
1704.5129890966
 20
-1246.0155134429
 10
1703.2874661639
 20
-1246.5797093817
 10
1701.875195062
 20
-1246.9723307891
 10
1700.346992961
 20
-1247.1736899884
 10
1698.7794902956
 20
-1247.1736899884
 10
1697.2512881946
 20
-1246.9723307891
 10
1695.8390170927
 20
-1246.5797093817
 10
1694.61349416
 20
-1246.0155134429
  0
LWPOLYLINE
  5
120
330
1F
100
AcDbEntity
  8
0
  6
Continuous
 62
     7
370
    25
100
AcDbPolyline
 90
       24
 70
   128
 43
0.0
 10
1696.0277077223
 20
-1245.1991053311
 10
1695.2049392781
 20
-1244.5727580812
 10
1694.7054061813
 20
-1243.8414910045
 10
1694.5661565165
 20
-1243.0595388346
 10
1694.7975177942
 20
-1242.2848953868
 10
1695.382331007
 20
-1241.5750124218
 10
1696.2772232342
 20
-1240.9825387117
 10
1697.4158244131
 20
-1240.5514153212
 10
1698.7136897031
 20
-1240.3136166998
 10
1700.074562373
 20
-1240.2867792836
 10
1701.3975127223
 20
-1240.4728934807
 10
1702.5844235759
 20
-1240.8581560528
 10
1703.5472671854
 20
-1241.4139938372
 10
1704.214633845
 20
-1242.0991828883
 10
1704.5370280226
 20
-1242.8629058687
 10
1704.4905392169
 20
-1243.6485209387
 10
1704.0786152899
 20
-1244.3977626225
 10
1703.3318067549
 20
-1245.0550630921
 10
1702.3055009845
 20
-1245.5716733785
 10
1701.0758143827
 20
-1245.9092788601
 10
1699.7339471792
 20
-1246.0428408828
 10
1698.379419526
 20
-1245.9624537624
 10
1697.1126905424
 20
-1245.6740794438
 10
1696.0277077223
 20
-1245.1991053311
  0
LWPOLYLINE
  5
121
330
1F
100
AcDbEntity
  8
0
  6
Continuous
 62
     7
370
    25
100
AcDbPolyline
 90
       29
 70
   128
 43
0.0
 10
2186.7598138658
 20
-1019.0540583562
 10
2185.7824919395
 20
-1018.3465790263
 10
2185.102378022
 20
-1017.531292273
 10
2184.7535758649
 20
-1016.6490799785
 10
2184.7535758649
 20
-1015.7441799511
 10
2185.102378022
 20
-1014.8619676566
 10
2185.7824919395
 20
-1014.0466809034
 10
2186.7598138658
 20
-1013.3392015734
 10
2187.9853367985
 20
-1012.7750056346
 10
2189.3976079004
 20
-1012.3823842272
 10
2190.9258100014
 20
-1012.181025028
 10
2192.4933126668
 20
-1012.181025028
 10
2194.0215147678
 20
-1012.3823842272
 10
2195.4337858697
 20
-1012.7750056346
 10
2196.6593088024
 20
-1013.3392015734
 10
2197.6366307287
 20
-1014.0466809034
 10
2198.3167446463
 20
-1014.8619676566
 10
2198.6655468034
 20
-1015.7441799511
 10
2198.6655468034
 20
-1016.6490799785
 10
2198.3167446463
 20
-1017.531292273
 10
2197.6366307287
 20
-1018.3465790263
 10
2196.6593088024
 20
-1019.0540583562
 10
2195.4337858697
 20
-1019.618254295
 10
2194.0215147678
 20
-1020.0108757024
 10
2192.4933126668
 20
-1020.2122349017
 10
2190.9258100014
 20
-1020.2122349017
 10
2189.3976079004
 20
-1020.0108757024
 10
2187.9853367985
 20
-1019.618254295
 10
2186.7598138658
 20
-1019.0540583562
  0
LWPOLYLINE
  5
122
330
1F
100
AcDbEntity
  8
0
  6
Continuous
 62
     7
370
    25
100
AcDbPolyline
 90
       24
 70
   128
 43
0.0
 10
2188.1740274282
 20
-1018.2376502444
 10
2187.351258984
 20
-1017.6113029945
 10
2186.8517258871
 20
-1016.8800359178
 10
2186.7124762223
 20
-1016.0980837479
 10
2186.9438375
 20
-1015.3234403001
 10
2187.5286507128
 20
-1014.6135573351
 10
2188.42354294
 20
-1014.021083625
 10
2189.562144119
 20
-1013.5899602345
 10
2190.860009409
 20
-1013.3521616131
 10
2192.2208820788
 20
-1013.3253241968
 10
2193.5438324282
 20
-1013.511438394
 10
2194.7307432817
 20
-1013.8967009661
 10
2195.6935868912
 20
-1014.4525387505
 10
2196.3609535508
 20
-1015.1377278016
 10
2196.6833477284
 20
-1015.901450782
 10
2196.6368589227
 20
-1016.687065852
 10
2196.2249349957
 20
-1017.4363075358
 10
2195.4781264608
 20
-1018.0936080054
 10
2194.4518206904
 20
-1018.6102182918
 10
2193.2221340885
 20
-1018.9478237734
 10
2191.8802668851
 20
-1019.0813857961
 10
2190.5257392318
 20
-1019.0009986757
 10
2189.2590102482
 20
-1018.7126243571
 10
2188.1740274282
 20
-1018.2376502444
  0
LWPOLYLINE
  5
123
330
1F
100
AcDbEntity
  8
0
  6
Continuous
 62
     7
370
    25
100
AcDbPolyline
 90
       29
 70
   128
 43
0.0
 10
2147.1618341194
 20
-984.7649176596
 10
2148.1391560457
 20
-985.4723969896
 10
2148.8192699632
 20
-986.2876837428
 10
2149.1680721203
 20
-987.1698960373
 10
2149.1680721203
 20
-988.0747960647
 10
2148.8192699632
 20
-988.9570083592
 10
2148.1391560457
 20
-989.7722951125
 10
2147.1618341194
 20
-990.4797744424
 10
2145.9363111867
 20
-991.0439703812
 10
2144.5240400847
 20
-991.4365917886
 10
2142.9958379838
 20
-991.6379509879
 10
2141.4283353183
 20
-991.6379509879
 10
2139.9001332174
 20
-991.4365917886
 10
2138.4878621155
 20
-991.0439703812
 10
2137.2623391828
 20
-990.4797744424
 10
2136.2850172565
 20
-989.7722951125
 10
2135.6049033389
 20
-988.9570083592
 10
2135.2561011818
 20
-988.0747960647
 10
2135.2561011818
 20
-987.1698960373
 10
2135.6049033389
 20
-986.2876837428
 10
2136.2850172565
 20
-985.4723969896
 10
2137.2623391828
 20
-984.7649176596
 10
2138.4878621155
 20
-984.2007217208
 10
2139.9001332174
 20
-983.8081003134
 10
2141.4283353183
 20
-983.6067411142
 10
2142.9958379838
 20
-983.6067411142
 10
2144.5240400847
 20
-983.8081003134
 10
2145.9363111867
 20
-984.2007217208
 10
2147.1618341194
 20
-984.7649176596
  0
LWPOLYLINE
  5
124
330
1F
100
AcDbEntity
  8
0
  6
Continuous
 62
     7
370
    25
100
AcDbPolyline
 90
       24
 70
   128
 43
0.0
 10
2145.747620557
 20
-985.5813257715
 10
2146.5703890012
 20
-986.2076730213
 10
2147.0699220981
 20
-986.938940098
 10
2147.2091717629
 20
-987.7208922679
 10
2146.9778104851
 20
-988.4955357158
 10
2146.3929972723
 20
-989.2054186807
 10
2145.4981050452
 20
-989.7978923908
 10
2144.3595038662
 20
-990.2290157813
 10
2143.0616385762
 20
-990.4668144027
 10
2141.7007659064
 20
-990.493651819
 10
2140.377815557
 20
-990.3075376218
 10
2139.1909047035
 20
-989.9222750497
 10
2138.228061094
 20
-989.3664372653
 10
2137.5606944344
 20
-988.6812482142
 10
2137.2383002568
 20
-987.9175252339
 10
2137.2847890625
 20
-987.1319101638
 10
2137.6967129894
 20
-986.38266848
 10
2138.4435215244
 20
-985.7253680104
 10
2139.4698272948
 20
-985.208757724
 10
2140.6995138967
 20
-984.8711522424
 10
2142.0413811001
 20
-984.7375902197
 10
2143.3959087534
 20
-984.8179773401
 10
2144.662637737
 20
-985.1063516587
 10
2145.747620557
 20
-985.5813257715
  0
LWPOLYLINE
  5
125
330
1F
100
AcDbEntity
  8
0
  6
Continuous
 62
     1
370
    25
100
AcDbPolyline
 90
      122
 70
   128
 43
0.0
 10
1566.077893133
 20
-1105.0101722052
 10
1575.8797170668
 20
-1099.6432751873
 10
1585.9592224832
 20
-1094.7026613818
 10
1596.2791749759
 20
-1090.2092267335
 10
1606.8325017651
 20
-1086.1660508178
 10
1617.6119701276
 20
-1082.5759046258
 10
1628.6101923544
 20
-1079.4412486641
 10
1639.8196308132
 20
-1076.7642312695
 10
1651.232603115
 20
-1074.5466871359
 10
1662.8412873785
 20
-1072.7901360573
 10
1674.6377275915
 20
-1071.4957818861
 10
1686.613839063
 20
-1070.6645117079
 10
1698.7614139645
 20
-1070.2968952339
 10
1711.0721269549
 20
-1070.39318441
 10
1723.5375408865
 20
-1070.9533132445
 10
1736.1491125872
 20
-1071.9768978528
 10
1748.8981987157
 20
-1073.4632367215
 10
1761.7760616853
 20
-1075.4113111879
 10
1774.773875652
 20
-1077.8197861392
 10
1787.8827325632
 20
-1080.6870109269
 10
1801.0936482633
 20
-1084.0110204985
 10
1814.3975686505
 20
-1087.7895367437
 10
1827.7853758824
 20
-1092.0199700563
 10
1841.2478946246
 20
-1096.6994211087
 10
1854.7758983393
 20
-1101.8246828387
 10
1868.3601156084
 20
-1107.3922426481
 10
1881.9912364879
 20
-1113.3982848094
 10
1895.6599188886
 20
-1119.8386930813
 10
1909.3567949782
 20
-1126.7090535298
 10
1923.072477602
 20
-1134.0046575529
 10
1936.7975667164
 20
-1141.7205051081
 10
1950.5226558307
 20
-1149.8513081389
 10
1964.2383384546
 20
-1158.391494199
 10
1977.9352145442
 20
-1167.3352102715
 10
1991.6038969448
 20
-1176.6763267801
 10
2005.2350178244
 20
-1186.4084417903
 10
2018.8192350934
 20
-1196.5248853964
 10
2032.3472388081
 20
-1207.0187242934
 10
2045.8097575503
 20
-1217.8827665283
 10
2059.1975647822
 20
-1229.1095664291
 10
2072.5014851695
 20
-1240.6914297081
 10
2085.7124008695
 20
-1252.6204187347
 10
2098.8212577808
 20
-1264.8883579756
 10
2111.8190717474
 20
-1277.4868395982
 10
2124.696934717
 20
-1290.4072292323
 10
2137.4460208456
 20
-1303.6406718883
 10
2150.0575925463
 20
-1317.1780980258
 10
2162.5230064779
 20
-1331.0102297689
 10
2174.8337194683
 20
-1345.1275872655
 10
2186.9812943698
 20
-1359.5204951841
 10
2198.9574058413
 20
-1374.1790893444
 10
2210.7538460542
 20
-1389.0933234781
 10
2222.3625303177
 20
-1404.2529761143
 10
2233.7755026195
 20
-1419.6476575843
 10
2244.9849410784
 20
-1435.2668171423
 10
2255.9831633051
 20
-1451.0997501965
 10
2266.7626316677
 20
-1467.1356056456
 10
2277.3159584568
 20
-1483.3633933153
 10
2287.6359109496
 20
-1499.7719914903
 10
2297.7154163659
 20
-1516.3501545373
 10
2307.5475667164
 20
-1533.0865206113
 10
2317.1256235362
 20
-1549.969619443
 10
2326.4430225037
 20
-1566.9878801998
 10
2335.493377939
 20
-1584.1296394159
 10
2344.2704871806
 20
-1601.3831489858
 10
2352.7683348363
 20
-1618.7365842158
 10
2360.9810969057
 20
-1636.1780519282
 10
2368.9031447719
 20
-1653.6955986124
 10
2376.5290490591
 20
-1671.2772186167
 10
2383.8535833534
 20
-1688.9108623772
 10
2390.8717277848
 20
-1706.5844446751
 10
2397.5786724677
 20
-1724.28585292
 10
2403.9698207973
 20
-1742.0029554509
 10
2410.0407925997
 20
-1759.7236098507
 10
2415.7874271341
 20
-1777.435671268
 10
2421.2057859443
 20
-1795.1270007407
 10
2426.2921555577
 20
-1812.7854735152
 10
2431.0430500308
 20
-1830.3989873565
 10
2435.4552133376
 20
-1847.9554708418
 10
2439.525621602
 20
-1865.4428916344
 10
2443.2514851694
 20
-1882.8492647296
 10
2446.6302505191
 20
-1900.1626606688
 10
2449.659602014
 20
-1917.3712137152
 10
2452.3374634879
 20
-1934.4631299861
 10
2454.6619996683
 20
-1951.4266955358
 10
2456.6316174343
 20
-1968.2502843839
 10
2458.2449669083
 20
-1984.922366483
 10
2459.500942381
 20
-2001.4315156208
 10
2460.3986830697
 20
-2017.766417251
 10
2460.9375737076
 20
-2033.9158762482
 10
2461.1172449662
 20
-2049.8688245796
 10
2460.9375737076
 20
-2065.6143288916
 10
2460.3986830697
 20
-2081.1415980018
 10
2459.500942381
 20
-2096.4399902956
 10
2458.2449669083
 20
-2111.4990210192
 10
2456.6316174343
 20
-2126.3083694651
 10
2454.6619996683
 20
-2140.8578860456
 10
2452.3374634879
 20
-2155.1375992488
 10
2449.659602014
 20
-2169.1377224725
 10
2446.6302505191
 20
-2182.8486607317
 10
2443.2514851694
 20
-2196.2610172342
 10
2439.525621602
 20
-2209.3655998207
 10
2435.4552133376
 20
-2222.1534272649
 10
2431.0430500308
 20
-2234.6157354286
 10
2426.2921555577
 20
-2246.7439832685
 10
2421.2057859443
 20
-2258.5298586891
 10
2415.7874271341
 20
-2269.9652842402
 10
2410.0407925997
 20
-2281.0424226524
 10
2403.9698207973
 20
-2291.7536822083
 10
2397.5786724677
 20
-2302.0917219456
 10
2390.8717277848
 20
-2312.0494566884
 10
2383.8535833534
 20
-2321.6200619025
 10
2376.5290490591
 20
-2330.7969783733
 10
2368.9031447719
 20
-2339.5739167006
 10
2360.9810969057
 20
-2347.9448616092
 10
2352.7683348363
 20
-2355.9040760718
 10
2344.2704871806
 20
-2363.4461052402
 10
2335.493377939
 20
-2370.5657801844
 10
2326.4430225037
 20
-2377.2582214349
 10
2317.1256235362
 20
-2383.5188423266
 10
2307.5475667164
 20
-2389.3433521429
 10
2307.5174768471
 20
-2389.3607254817
  0
LWPOLYLINE
  5
126
330
1F
100
AcDbEntity
  8
0
  6
Continuous
 62
     1
370
    25
100
AcDbPolyline
 90
      122
 70
   128
 43
0.0
 10
1583.7553661212
 20
-1094.8051842683
 10
1593.5573865965
 20
-1089.4381737895
 10
1603.6368920128
 20
-1084.497559984
 10
1613.9568445056
 20
-1080.0041253357
 10
1624.5101712947
 20
-1075.9609494201
 10
1635.2896396573
 20
-1072.370803228
 10
1646.2878618841
 20
-1069.2361472663
 10
1657.4973003429
 20
-1066.5591298717
 10
1668.9102726447
 20
-1064.3415857381
 10
1680.5189569082
 20
-1062.5850346595
 10
1692.3153971211
 20
-1061.2906804883
 10
1704.2915085926
 20
-1060.4594103102
 10
1716.4390834941
 20
-1060.0917938362
 10
1728.7497964845
 20
-1060.1880830123
 10
1741.2152104161
 20
-1060.7482118467
 10
1753.8267821168
 20
-1061.7717964551
 10
1766.5758682454
 20
-1063.2581353237
 10
1779.453731215
 20
-1065.2062097901
 10
1792.4515451816
 20
-1067.6146847414
 10
1805.5604020929
 20
-1070.4819095292
 10
1818.771317793
 20
-1073.8059191007
 10
1832.0752381802
 20
-1077.5844353459
 10
1845.4630454121
 20
-1081.8148686586
 10
1858.9255641543
 20
-1086.4943197109
 10
1872.453567869
 20
-1091.6195814409
 10
1886.037785138
 20
-1097.1871412503
 10
1899.6689060176
 20
-1103.1931834116
 10
1913.3375884182
 20
-1109.6335916835
 10
1927.0344645078
 20
-1116.503952132
 10
1940.7501471317
 20
-1123.7995561551
 10
1954.475236246
 20
-1131.5154037103
 10
1968.2003253604
 20
-1139.6462067411
 10
1981.9160079842
 20
-1148.1863928012
 10
1995.6128840738
 20
-1157.1301088737
 10
2009.2815664745
 20
-1166.4712253823
 10
2022.912687354
 20
-1176.2033403925
 10
2036.4969046231
 20
-1186.3197839986
 10
2050.0249083378
 20
-1196.8136228956
 10
2063.48742708
 20
-1207.6776651305
 10
2076.8752343119
 20
-1218.9044650314
 10
2090.1791546991
 20
-1230.4863283104
 10
2103.3900703992
 20
-1242.4153173369
 10
2116.4989273104
 20
-1254.6832565779
 10
2129.4967412771
 20
-1267.2817382004
 10
2142.3746042467
 20
-1280.2021278345
 10
2155.1236903752
 20
-1293.4355704906
 10
2167.735262076
 20
-1306.972996628
 10
2180.2006760075
 20
-1320.8051283711
 10
2192.511388998
 20
-1334.9224858678
 10
2204.6589638994
 20
-1349.3153937863
 10
2216.6350753709
 20
-1363.9739879466
 10
2228.4315155839
 20
-1378.8882220803
 10
2240.0401998474
 20
-1394.0478747166
 10
2251.4531721492
 20
-1409.4425561865
 10
2262.662610608
 20
-1425.0617157445
 10
2273.6608328348
 20
-1440.8946487988
 10
2284.4403011973
 20
-1456.9305042479
 10
2294.9936279865
 20
-1473.1582919175
 10
2305.3135804792
 20
-1489.5668900926
 10
2315.3930858956
 20
-1506.1450531395
 10
2325.225236246
 20
-1522.8814192135
 10
2334.8032930659
 20
-1539.7645180452
 10
2344.1206920334
 20
-1556.7827788021
 10
2353.1710474687
 20
-1573.9245380182
 10
2361.9481567103
 20
-1591.178047588
 10
2370.446004366
 20
-1608.531482818
 10
2378.6587664353
 20
-1625.9729505305
 10
2386.5808143016
 20
-1643.4904972146
 10
2394.2067185888
 20
-1661.0721172189
 10
2401.531252883
 20
-1678.7057609794
 10
2408.5493973145
 20
-1696.3793432773
 10
2415.2563419974
 20
-1714.0807515222
 10
2421.647490327
 20
-1731.7978540531
 10
2427.7184621294
 20
-1749.5185084529
 10
2433.4650966638
 20
-1767.2305698702
 10
2438.8834554739
 20
-1784.9218993429
 10
2443.9698250874
 20
-1802.5803721174
 10
2448.7207195604
 20
-1820.1938859587
 10
2453.1328828673
 20
-1837.750369444
 10
2457.2032911317
 20
-1855.2377902366
 10
2460.9291546991
 20
-1872.6441633319
 10
2464.3079200488
 20
-1889.957559271
 10
2467.3372715436
 20
-1907.1661123174
 10
2470.0151330175
 20
-1924.2580285883
 10
2472.339669198
 20
-1941.221594138
 10
2474.309286964
 20
-1958.0451829862
 10
2475.9226364379
 20
-1974.7172650852
 10
2477.1786119107
 20
-1991.226414223
 10
2478.0763525993
 20
-2007.5613158533
 10
2478.6152432373
 20
-2023.7107748504
 10
2478.7949144959
 20
-2039.6637231819
 10
2478.6152432373
 20
-2055.4092274938
 10
2478.0763525993
 20
-2070.936496604
 10
2477.1786119107
 20
-2086.2348888978
 10
2475.9226364379
 20
-2101.2939196214
 10
2474.309286964
 20
-2116.1032680673
 10
2472.339669198
 20
-2130.6527846478
 10
2470.0151330175
 20
-2144.932497851
 10
2467.3372715436
 20
-2158.9326210747
 10
2464.3079200487
 20
-2172.643559334
 10
2460.9291546991
 20
-2186.0559158364
 10
2457.2032911317
 20
-2199.1604984229
 10
2453.1328828673
 20
-2211.9483258671
 10
2448.7207195604
 20
-2224.4106340309
 10
2443.9698250874
 20
-2236.5388818707
 10
2438.8834554739
 20
-2248.3247572913
 10
2433.4650966638
 20
-2259.7601828425
 10
2427.7184621294
 20
-2270.8373212547
 10
2421.647490327
 20
-2281.5485808105
 10
2415.2563419974
 20
-2291.8866205479
 10
2408.5493973145
 20
-2301.8443552906
 10
2401.531252883
 20
-2311.4149605047
 10
2394.2067185888
 20
-2320.5918769755
 10
2386.5808143016
 20
-2329.3688153028
 10
2378.6587664353
 20
-2337.7397602114
 10
2370.446004366
 20
-2345.698974674
 10
2361.9481567103
 20
-2353.2410038424
 10
2353.1710474687
 20
-2360.3606787866
 10
2344.1206920334
 20
-2367.0531200371
 10
2334.8032930659
 20
-2373.3137409289
 10
2325.225236246
 20
-2379.1382507451
 10
2325.1951063709
 20
-2379.1556471789
  0
ENDSEC
  0
SECTION
  2
OBJECTS
  0
DICTIONARY
  5
C
330
0
100
AcDbDictionary
281
     1
  3
ACAD_GROUP
350
D
  3
ACAD_LAYOUT
350
1A
  3
ACAD_MLINESTYLE
350
17
  3
ACAD_PLOTSETTINGS
350
19
  3
ACAD_PLOTSTYLENAME
350
E
  3
ACAD_SCALELIST
350
47
  3
DWGPROPS
350
127
  0
DICTIONARY
  5
D
102
{ACAD_REACTORS
330
C
102
}
330
C
100
AcDbDictionary
281
     1
  0
DICTIONARY
  5
1A
102
{ACAD_REACTORS
330
C
102
}
330
C
100
AcDbDictionary
281
     1
  3
Layout1
350
1E
  3
Layout2
350
26
  3
Model
350
22
  0
DICTIONARY
  5
17
102
{ACAD_REACTORS
330
C
102
}
330
C
100
AcDbDictionary
281
     1
  3
Standard
350
18
  0
DICTIONARY
  5
19
102
{ACAD_REACTORS
330
C
102
}
330
C
100
AcDbDictionary
281
     1
  0
ACDBDICTIONARYWDFLT
  5
E
102
{ACAD_REACTORS
330
C
102
}
330
C
100
AcDbDictionary
281
     1
  3
Normal
350
F
100
AcDbDictionaryWithDefault
340
F
  0
DICTIONARY
  5
47
102
{ACAD_REACTORS
330
C
102
}
330
C
100
AcDbDictionary
281
     1
  3
A0
350
48
  3
A1
350
49
  3
A2
350
4A
  3
A3
350
4B
  3
A4
350
4C
  3
A5
350
4D
  3
A6
350
4E
  3
A7
350
4F
  3
A8
350
50
  3
A9
350
51
  3
B0
350
52
  3
B1
350
53
  3
B2
350
54
  3
B3
350
55
  3
B4
350
56
  3
B5
350
57
  3
B6
350
58
  3
B7
350
59
  3
B8
350
5A
  3
B9
350
5B
  3
C0
350
5C
  3
C1
350
5D
  3
C2
350
5E
  3
C3
350
5F
  3
C4
350
60
  3
C5
350
61
  3
C6
350
62
  3
C7
350
63
  3
C8
350
64
  3
C9
350
65
  3
D0
350
66
  3
D1
350
67
  3
D2
350
68
  0
XRECORD
  5
127
102
{ACAD_REACTORS
330
C
102
}
330
C
100
AcDbXrecord
280
     1
  1
DWGPROPS COOKIE
  2

  3

  4

  6

  7

  8
b.kav
  9

300
=
301
=
302
=
303
=
304
=
305
=
306
=
307
=
308
=
309
=
 40
0.0
 41
2459935.585558195
 42
2459935.58555838
  1

 90
        0
  0
LAYOUT
  5
1E
102
{ACAD_REACTORS
330
1A
102
}
330
1A
100
AcDbPlotSettings
  1

  2
none_device
  4

  6

 40
0.0
 41
0.0
 42
0.0
 43
0.0
 44
0.0
 45
0.0
 46
0.0
 47
0.0
 48
0.0
 49
0.0
140
0.0
141
0.0
142
1.0
143
1.0
 70
   688
 72
     1
 73
     0
 74
     5
  7

 75
    16
147
1.0
148
0.0
149
0.0
100
AcDbLayout
  1
Layout1
 70
     1
 71
     1
 10
0.0
 20
0.0
 11
420.0
 21
297.0
 12
0.0
 22
0.0
 32
0.0
 14
1.0000000000E+20
 24
1.0000000000E+20
 34
1.0000000000E+20
 15
-1.0000000000E+20
 25
-1.0000000000E+20
 35
-1.0000000000E+20
146
0.0
 13
0.0
 23
0.0
 33
0.0
 16
1.0
 26
0.0
 36
0.0
 17
0.0
 27
1.0
 37
0.0
 76
     0
330
1B
  0
LAYOUT
  5
26
102
{ACAD_REACTORS
330
1A
102
}
330
1A
100
AcDbPlotSettings
  1

  2
none_device
  4

  6

 40
0.0
 41
0.0
 42
0.0
 43
0.0
 44
0.0
 45
0.0
 46
0.0
 47
0.0
 48
0.0
 49
0.0
140
0.0
141
0.0
142
1.0
143
1.0
 70
   688
 72
     1
 73
     0
 74
     5
  7

 75
    16
147
1.0
148
0.0
149
0.0
100
AcDbLayout
  1
Layout2
 70
     1
 71
     2
 10
0.0
 20
0.0
 11
0.0
 21
0.0
 12
0.0
 22
0.0
 32
0.0
 14
0.0
 24
0.0
 34
0.0
 15
0.0
 25
0.0
 35
0.0
146
0.0
 13
0.0
 23
0.0
 33
0.0
 16
1.0
 26
0.0
 36
0.0
 17
0.0
 27
1.0
 37
0.0
 76
     0
330
23
  0
LAYOUT
  5
22
102
{ACAD_REACTORS
330
1A
102
}
330
1A
100
AcDbPlotSettings
  1

  2
none_device
  4
Letter_(8.50_x_11.00_Inches)
  6

 40
6.35
 41
6.35
 42
6.35000508
 43
6.35000508
 44
215.9
 45
279.4
 46
0.0
 47
0.0
 48
0.0
 49
0.0
140
0.0
141
0.0
142
1.0
143
1.0
 70
  1712
 72
     1
 73
     0
 74
     0
  7

 75
     0
147
1.0
148
0.0
149
0.0
100
AcDbLayout
  1
Model
 70
     1
 71
     0
 10
0.0
 20
0.0
 11
279.4
 21
215.9
 12
0.0
 22
0.0
 32
0.0
 14
0.0
 24
0.0
 34
0.0
 15
279.4
 25
215.9
 35
0.0
146
0.0
 13
0.0
 23
0.0
 33
0.0
 16
1.0
 26
0.0
 36
0.0
 17
0.0
 27
1.0
 37
0.0
 76
     0
330
1F
331
29
  0
MLINESTYLE
  5
18
102
{ACAD_REACTORS
330
17
102
}
330
17
100
AcDbMlineStyle
  2
Standard
 70
     0
  3

 62
   256
 51
90.0
 52
90.0
 71
     2
 49
0.5
 62
   256
  6
BYLAYER
 49
-0.5
 62
   256
  6
BYLAYER
  0
ACDBPLACEHOLDER
  5
F
102
{ACAD_REACTORS
330
E
102
}
330
E
  0
SCALE
  5
48
102
{ACAD_REACTORS
330
47
102
}
330
47
100
AcDbScale
 70
     0
300
1:1
140
1.0
141
1.0
290
     1
  0
SCALE
  5
49
102
{ACAD_REACTORS
330
47
102
}
330
47
100
AcDbScale
 70
     0
300
1:2
140
1.0
141
2.0
290
     0
  0
SCALE
  5
4A
102
{ACAD_REACTORS
330
47
102
}
330
47
100
AcDbScale
 70
     0
300
1:4
140
1.0
141
4.0
290
     0
  0
SCALE
  5
4B
102
{ACAD_REACTORS
330
47
102
}
330
47
100
AcDbScale
 70
     0
300
1:5
140
1.0
141
5.0
290
     0
  0
SCALE
  5
4C
102
{ACAD_REACTORS
330
47
102
}
330
47
100
AcDbScale
 70
     0
300
1:8
140
1.0
141
8.0
290
     0
  0
SCALE
  5
4D
102
{ACAD_REACTORS
330
47
102
}
330
47
100
AcDbScale
 70
     0
300
1:10
140
1.0
141
10.0
290
     0
  0
SCALE
  5
4E
102
{ACAD_REACTORS
330
47
102
}
330
47
100
AcDbScale
 70
     0
300
1:16
140
1.0
141
16.0
290
     0
  0
SCALE
  5
4F
102
{ACAD_REACTORS
330
47
102
}
330
47
100
AcDbScale
 70
     0
300
1:20
140
1.0
141
20.0
290
     0
  0
SCALE
  5
50
102
{ACAD_REACTORS
330
47
102
}
330
47
100
AcDbScale
 70
     0
300
1:30
140
1.0
141
30.0
290
     0
  0
SCALE
  5
51
102
{ACAD_REACTORS
330
47
102
}
330
47
100
AcDbScale
 70
     0
300
1:40
140
1.0
141
40.0
290
     0
  0
SCALE
  5
52
102
{ACAD_REACTORS
330
47
102
}
330
47
100
AcDbScale
 70
     0
300
1:50
140
1.0
141
50.0
290
     0
  0
SCALE
  5
53
102
{ACAD_REACTORS
330
47
102
}
330
47
100
AcDbScale
 70
     0
300
1:100
140
1.0
141
100.0
290
     0
  0
SCALE
  5
54
102
{ACAD_REACTORS
330
47
102
}
330
47
100
AcDbScale
 70
     0
300
2:1
140
2.0
141
1.0
290
     0
  0
SCALE
  5
55
102
{ACAD_REACTORS
330
47
102
}
330
47
100
AcDbScale
 70
     0
300
4:1
140
4.0
141
1.0
290
     0
  0
SCALE
  5
56
102
{ACAD_REACTORS
330
47
102
}
330
47
100
AcDbScale
 70
     0
300
8:1
140
8.0
141
1.0
290
     0
  0
SCALE
  5
57
102
{ACAD_REACTORS
330
47
102
}
330
47
100
AcDbScale
 70
     0
300
10:1
140
10.0
141
1.0
290
     0
  0
SCALE
  5
58
102
{ACAD_REACTORS
330
47
102
}
330
47
100
AcDbScale
 70
     0
300
100:1
140
100.0
141
1.0
290
     0
  0
SCALE
  5
59
102
{ACAD_REACTORS
330
47
102
}
330
47
100
AcDbScale
 70
     0
300
1/128" = 1'-0"
140
0.0078125
141
12.0
290
     0
  0
SCALE
  5
5A
102
{ACAD_REACTORS
330
47
102
}
330
47
100
AcDbScale
 70
     0
300
1/64" = 1'-0"
140
0.015625
141
12.0
290
     0
  0
SCALE
  5
5B
102
{ACAD_REACTORS
330
47
102
}
330
47
100
AcDbScale
 70
     0
300
1/32" = 1'-0"
140
0.03125
141
12.0
290
     0
  0
SCALE
  5
5C
102
{ACAD_REACTORS
330
47
102
}
330
47
100
AcDbScale
 70
     0
300
1/16" = 1'-0"
140
0.0625
141
12.0
290
     0
  0
SCALE
  5
5D
102
{ACAD_REACTORS
330
47
102
}
330
47
100
AcDbScale
 70
     0
300
3/32" = 1'-0"
140
0.09375
141
12.0
290
     0
  0
SCALE
  5
5E
102
{ACAD_REACTORS
330
47
102
}
330
47
100
AcDbScale
 70
     0
300
1/8" = 1'-0"
140
0.125
141
12.0
290
     0
  0
SCALE
  5
5F
102
{ACAD_REACTORS
330
47
102
}
330
47
100
AcDbScale
 70
     0
300
3/16" = 1'-0"
140
0.1875
141
12.0
290
     0
  0
SCALE
  5
60
102
{ACAD_REACTORS
330
47
102
}
330
47
100
AcDbScale
 70
     0
300
1/4" = 1'-0"
140
0.25
141
12.0
290
     0
  0
SCALE
  5
61
102
{ACAD_REACTORS
330
47
102
}
330
47
100
AcDbScale
 70
     0
300
3/8" = 1'-0"
140
0.375
141
12.0
290
     0
  0
SCALE
  5
62
102
{ACAD_REACTORS
330
47
102
}
330
47
100
AcDbScale
 70
     0
300
1/2" = 1'-0"
140
0.5
141
12.0
290
     0
  0
SCALE
  5
63
102
{ACAD_REACTORS
330
47
102
}
330
47
100
AcDbScale
 70
     0
300
3/4" = 1'-0"
140
0.75
141
12.0
290
     0
  0
SCALE
  5
64
102
{ACAD_REACTORS
330
47
102
}
330
47
100
AcDbScale
 70
     0
300
1" = 1'-0"
140
1.0
141
12.0
290
     0
  0
SCALE
  5
65
102
{ACAD_REACTORS
330
47
102
}
330
47
100
AcDbScale
 70
     0
300
1-1/2" = 1'-0"
140
1.5
141
12.0
290
     0
  0
SCALE
  5
66
102
{ACAD_REACTORS
330
47
102
}
330
47
100
AcDbScale
 70
     0
300
3" = 1'-0"
140
3.0
141
12.0
290
     0
  0
SCALE
  5
67
102
{ACAD_REACTORS
330
47
102
}
330
47
100
AcDbScale
 70
     0
300
6" = 1'-0"
140
6.0
141
12.0
290
     0
  0
SCALE
  5
68
102
{ACAD_REACTORS
330
47
102
}
330
47
100
AcDbScale
 70
     0
300
1'-0" = 1'-0"
140
12.0
141
12.0
290
     0
  0
ENDSEC
  0
EOF
